Song name
# A B C D E F G H I J K L M N O P Q R S T U V W X Y Z

Swirl 360 - Okay tab

Tuning: C#, G#, C#, F#, A#, D#  (Dropped C#)

Intro riff

D#----------/---9----10----------------------------|
A#----------/--10---10-----------------------------|
F#----------/---9-----9----------------------------|
C#------0------0-----0-----------------------------|
G#----- 0------0-----0-----------------------------|
C#------0------0-----0-----------------------------|

1st Verse

D#------0-------9----10-----------------------------|
A#------3-------10---10-----------------------------|
F# ------2-------9-----9----------------------------|
C#------0-------0-----0-----------------------------|
G#------2-------0-----0-----------------------------|
C#---------------0-----0----------------------------|

Pre Chorus

D#------0-------0------0-------------0---------------|
A#------0-------3------0-------------0---------------|
F# ------7-------4------2-------------4--------------|
C#------7-------4------2-------------2---------------|
G#------5-------2------0-------------2---------------|
C#------5-----------------------------2--------------|

(last chord only played at end of section)


Chorus

D#------0-------0-------0--------0--------|
A#------0-------0-------0--------3--------|
F# ------7-------6------11-------2--------|  (last 2 chords not played at end of section)
C#------7-------7------12-------0---------|
G#------5-------x-------9-------0---------|
C#------5-------7-------9-------0---------|

2nd Verse

D#------0--------0-----------------|
A#------3--------3-----------------|
F#-------2--------2----------------|
C#------0--------0-----------------|
G#------2--------0-----------------|
C#---------------0-----------------|

Bridge

D#------3-------3-----0------0-------0--------------|
A#------3-------3-----3------0-------0--------------|
F# ------0-------0-----2------2-------4-------------|
C#------0-------0-----0------2-------2--------------|
G#------3-------2-----0------0-------2--------------|
C#---------------------0--------------2-------------|

(last chord only played at end of section)
Tap to rate this tab
 
# A B C D E F G H I J K L M N O P Q R S T U V W X Y Z