Song name
# A B C D E F G H I J K L M N O P Q R S T U V W X Y Z

Switch - Swear By The Hilt tab

This is my first tab and i was too lazy to do the rest :P
e|------------------------------------------|
B|------------------------------------------|
G|------------------------------------------|
D|------------------------------------------|  x3
A|-12-11-9---12-11-9------9-11------9-11-9--|
E|---------9---------9-12------9-12---------|

e|-----------------------------------------------------------------|
B|-----------------------------------------------------------------|
G|---------------------------------888-8-8-------------------------|
D|-------------------------55-5-5--888-8-8--555-5-5--101010-10-10--|
A|-10------8-9-----7-8-9---55-5-5--666-6-6--555-5-5--101010-10-10--|
E|----12-------5-----------33-3-3-----------333-3-3--8-8-8--8--8---|

e|------------------------------------------------------------------------------|
B|------------------------------------------------------------------------------|
G|-777-7-7--333-3-3-----------555-5-5--121212-12-12--888-8-8-----------555-5-5--|
D|-777-7-7--333-3-3--555-5-5--555-5-5--121212-12-12--888-8-8--555-5-5--555-5-5--|
A|-555-5-5--111-1-1--555-5-5--333-3-3--101010-10-10--666-6-6--555-5-5--333-3-3--|
E|-------------------333-3-3----------------------------------333-3-3-----------|

e|------------------------------------|
B|------------------------------------|
G|-777-7-7--333-3-3-----------555-5-5-|
D|-777-7-7--333-3-3--555-5-5--555-5-5-|
A|-555-5-5--111-1-1--555-5-5--333-3-3-|
E|-------------------333-3-3----------|

this part is close but not exact
e|-----------------------------------------------------------------------------------|
B|-----------------------------------------------------------------------------------|
G|-1212-12-1212--1414-14-1414--1212-12-1212-1414-14-1414--1212-12-1212--1414-14-1414-|
D|-----------------------------------------------------------------------------------|
A|-----------------------------------------------------------------------------------|
E|-----------------------------------------------------------------------------------|

e|--------------------------------|
B|--------------------------------|
G|--1515-15-1515--1515-15-1414----|
D|--------------------------------|
A|--------------------------------|
E|--------------------------------|
Tap to rate this tab
 
# A B C D E F G H I J K L M N O P Q R S T U V W X Y Z