Song name
# A B C D E F G H I J K L M N O P Q R S T U V W X Y Z

Switches - Message From Yuz tab

-------------------------------------------------------------------------------
			     Message From Yuz - Switches
-------------------------------------------------------------------------------
Tabbed by:freddofett
Email:

Tuning:Standard
                       X4
e|------------------|
B|------------------|
G|------------------|
D|------------------|
A|---8-8-/6-\7-\8-8-|
E|---6-6-/4-\5-\6-6-|
                     X4
e|---------------|
B|---------------|
G|---------------|
D|---------------|
A|---------------|
E|---6-6-4-5-6-6-|

                       X4
e|------------------|
B|------------------|
G|------------------|
D|------------------|
A|---8-8-/6-\7-\8-8-|
E|---6-6-/4-\5-\6-6-|


e|---------------------------------------------------------------------------|
B|---------------------------------------------------------------------------|
G|---------------------------------------------------------------------------|
D|---------------------------------------------------------------------------|
A|-9-9-9-9-9-9-9-9-/4-4-4-4-4-4-4-4-/3-3-3-3-3-3-3-3-\8-8-8-8-8-8-8-8--------|
E|-7-7-7-7-7-7-7-7-/2-2-2-2-2-2-2-2-/1-1-1-1-1-1-1-1-\6-6-6-6-6-6-6-6--------|

e|--------------------------------------------------------------------11-------|
B|----------------------------------------------------------------------11--14-|
G|------------------------------------------------------------------------12---|
D|-----------------------------------------------------------------------------|
A|-9-9-9-9-9-9-9-9-/4-4-4-4-4-4-4-4-/3-3-3-3-3-3-3-3-\8-8-8-8-8-8-8-8----------|
E|-7-7-7-7-7-7-7-7-/2-2-2-2-2-2-2-2-/1-1-1-1-1-1-1-1-\6-6-6-6-6-6-6-6----------|
                       X4
e|------------------|
B|------------------|
G|------------------|
D|------------------|
A|---8-8-/6-\7-\8-8-|
E|---6-6-/4-\5-\6-6-|
                     X4
e|---------------|
B|---------------|
G|---------------|
D|---------------|
A|---------------|
E|---6-6-4-5-6-6-|

                       X4
e|------------------|
B|------------------|
G|------------------|
D|------------------|
A|---8-8-/6-\7-\8-8-|
E|---6-6-/4-\5-\6-6-|



e|---------------------------------------------------------------------------|
B|---------------------------------------------------------------------------|
G|---------------------------------------------------------------------------|
D|---------------------------------------------------------------------------|
A|-9-9-9-9-9-9-9-9-/4-4-4-4-4-4-4-4-/3-3-3-3-3-3-3-3-\8-8-8-8-8-8-8-8--------|
E|-7-7-7-7-7-7-7-7-/2-2-2-2-2-2-2-2-/1-1-1-1-1-1-1-1-\6-6-6-6-6-6-6-6--------|


e|--------------------------------------------------------------------11-------|
B|----------------------------------------------------------------------11--14-|
G|------------------------------------------------------------------------12---|
D|-----------------------------------------------------------------------------|
A|-9-9-9-9-9-9-9-9-/4-4-4-4-4-4-4-4-/3-3-3-3-3-3-3-3-\8-8-8-8-8-8-8-8----------|
E|-7-7-7-7-7-7-7-7-/2-2-2-2-2-2-2-2-/1-1-1-1-1-1-1-1-\6-6-6-6-6-6-6-6----------|
                     
                                        X4
e|---------------------------------------------------------------------------|
B|---------------------------------------------------------------------------|
G|---------------------------------------------------------------------------|
D|---------------------------------------------------------------------------|
A|-8-8-/7-\8-/7-/6-6-\7-\8---------------------------------------------------|
E|-6-6-/5-\6-/5-/4-4-\5-\6---------------------------------------------------|

e|---------------------------------------------------------------------------|
B|---------------------------------------------------------------------------|
G|---------------------------------------------------------------------------|
D|---------------------------------------------------------------------------|
A|-6-6-\7-\8-----------------------------------------------------------------|
E|-4-4-\5-\6-----------------------------------------------------------------|

                      X12
e|------------------|
B|------------------|
G|------------------|
D|------------------|
A|---8-8-/6-\7-\8-8-|
E|---6-6-/4-\5-\6-6-|


e|---------------------------------------------------------------------------|
B|---------------------------------------------------------------------------|
G|---------------------------------------------------------------------------|
D|---------------------------------------------------------------------------|
A|-9-9-9-9-9-9-9-9-/4-4-4-4-4-4-4-4-/3-3-3-3-3-3-3-3-\8-8-8-8-8-8-8-8--------|
E|-7-7-7-7-7-7-7-7-/2-2-2-2-2-2-2-2-/1-1-1-1-1-1-1-1-\6-6-6-6-6-6-6-6--------|

e|--------------------------------------------------------------------11-------|
B|----------------------------------------------------------------------11--14-|
G|------------------------------------------------------------------------12---|
D|-----------------------------------------------------------------------------|
A|-9-9-9-9-9-9-9-9-/4-4-4-4-4-4-4-4-/3-3-3-3-3-3-3-3-\8-8-8-8-8-8-8-8----------|
E|-7-7-7-7-7-7-7-7-/2-2-2-2-2-2-2-2-/1-1-1-1-1-1-1-1-\6-6-6-6-6-6-6-6----------|

                     X7
e|------------------|
B|------------------|
G|------------------|
D|------------------|
A|---8-8-/6-\7-\8-8-|
E|---6-6-/4-\5-\6-6-|

e|---------------------------------------------------------------------------|
B|---------------------------------------------------------------------------|
G|---------------------------------------------------------------------------|
D|---------------------------------------------------------------------------|
A|-8-8-/7-/6-----------------------------------------------------------------|
E|-6-6-/5-/4-----------------------------------------------------------------|


| /  slide up
| \  slide down
| h  hammer-on
| p  pull-off
| ~  vibrato
| +  harmonic
| x  Mute note
===============================================================================
Tap to rate this tab
# A B C D E F G H I J K L M N O P Q R S T U V W X Y Z