Song name
# A B C D E F G H I J K L M N O P Q R S T U V W X Y Z

Switchfoot - Might Have Ben Hur tab

     Artist:switchfoot
     Album:The Legend of Chin
   I'm positive this is 100% correct.

     Intro
   e|------------------------------------|
   B|-5-5---5-----------5----------------|
   G|-----6~-6-------6h7-------6^6^6^6^6-|
   D|---------6h7p6~-----4h6p4-----------|
   A|------------------------------------|
   E|------------------------------------|

     Verse
   e|------------------------|--------------------------------------------|
   B|------------------------|--------------------------------------------|
   G|--------------7777-9999-|--------------77777777-99999999-77777777-10~|
   D|-4-4444-2222--7777-9999-|-4-4444-2222--77777777-99999999-77777777-10~|
   A|-4-4444-2222\55555-7777-|-4-4444-2222\555555555-77777777-55555555-8~~|
   E|-0-2222-0000------------|-0-2222-0000--------------------------------|
 P.M.|-|                  P.M.|-|

     Chorus                                    After ending
   e|----------0~-----------------------------|-----------------------|
   B|--2~--------------7~---------------------|-----------------------|
   G|---------------------10-101010-1010--999-|---------------4\7/6---|
   D|---2-------6-------7-10-101010-1010--999-|-33333\555-------------|
   A|-0-0-0-2\4-4-4-4\5-5\8--8-8-8--8-8-8/777-|-33333\555-0-7---------|
   E|-----------------------------------------|-11111\333-------------|
 P.M.|-|-------|-------|

     Solo
   e|------------------------------------------------------------------------|
   B|-------5~---------5--------------------------------------------10\12-10-|
   G|-4-4\6~-6------6h7----------------------------------9-9-11-9-11---------|
   D|---------6h7p6~----4h6p4-2~\7-9-10-9-7-9-7-7\11~9h11--------------------|
   A|------------------------------------------------------------------------|
   E|------------------------------------------------------------------------|

   e|---------------------------------------|
   B|---------------------------------------|
   G|---------------------------------------|
   D|-7h9-10-9-7-9-7-7\11-11^11^11^11^11^11-|
   A|---------------------------------------|
   E|---------------------------------------|

     Acoustic
   e|-0~|
   B|-0~|
   G|-2~|
   D|-2~|
   A|-0~|
   E|---|

     Verse
     Chorus
     Post Chorus
   e|-------------------------------------------------------------------------|
   B|-------------------------------------------------------------------------|
   G|-------------------------------------------------------------------------|
   D|-333-33\555-55\77777777\333-33\555-55\77777777\333\5555\333\5555\333\555-|
   A|-333-33\555-55\77777777\333-33\555-55\77777777\333\5555\333\5555\333\555-|
   E|-111-11\333-33\55555555\111-11\333-33\55555555\111\3333\111\3333\111\333-|

   e|-----------------|
   B|-----------------|
   G|-------4\7\6-4-2-|
   D|-5---------------|
   A|-5-0-7-----------|
   E|-3---------------|

     Chorus
     End on
   e|---|
   B|---|
   G|-2~|
   D|-2~|
   A|-0~|
   E|-0~|

     That's it.God bless.
                      -Josh
Tap to rate this tab
# A B C D E F G H I J K L M N O P Q R S T U V W X Y Z