Song name
# A B C D E F G H I J K L M N O P Q R S T U V W X Y Z

Switchfoot - Love Is The Movement tab

    Artist:swithcfoot
    Album:Learning to Breathe
     I'm pretty sure tis is 100% correct.You really need to learn this with the song.

  Intro(4x)
e|-------------------------|
B|-------------------------|
G|---0---0---2---2---4---2-|
D|--0-0-0-0-4-4-4-4-4-4-4--|
A|-------------------------|
E|-3-----------------------|
  Then...
e|--------------------------------------------------------|
B|---3-3-------------3--3-3------3-------------3--3-3-----|
G|--2---2-2-0-0-2-2---2-------2-2-2-2-0-0-2-2---2-------2-|
D|-0-----3----------3--3-3-0-3-0---3----------3--3-3-0-3--|
A|-------------------------------------------1------------|
E|--------------------------------------------------------|
  Verse 1(3x)
e|-------------------------------------------------|
B|---3-3-----1-1-----------6--3--3--3----5--5--5---|
G|--2---2---0------2-0-2-------2--2--2----5--5--5--|
D|-0-----2-3----2-3-----5-7--3--3--3--3-5--5--5--5-|
A|--------------------------1----------3-----------|
E|-------------------------------------------------|
  A day in LA/And millions of faces/Looking for a movement/Cause every things stuck/And 
things frozen/And everyones broken/And nobody moves/And everyone's scared/That the 
will never come
  Pre-Chorus
e|----------------|
B|-0--3~--0--3~---|
G|-0--2~--0--2~---|
D|----------------|
A|----------------|
E|----------------|
  This an incompletion/Stuck in a line
  Chorus(Gtr. 1)
e|-----------------------------------------------|
B|-----------------------------------------------|
G|-----7------7----2-2-2-2-2-2----------5555-----|
D|---7-7----7-7----3-3-3-3-3-3----5-5-5-55557777-|
A|-5-5-5--5-5-5--1-1-1-1-1-1-1----5-5-5-33337777-|
E|------------------------------3-3-3-3-----5555-|
  Gtr. 2
e|--------------------------------------------------------------|
B|--------------------------------------------------------------|
G|-12/14-12/14-12--14-14-12-12-12-14--14-14-1212121212121212999-|
D|--------------------------------14----------------------------|
A|-10/12-10/12-10--12-12-10-10-10-12--12-12-1010101010101010777-|
E|--------------------------------------------------------------|
  Love is a movement/Love is a revolution/This is redemption/We don't have to slow right now!
  Post-Chorus
e|-------------------------13-----13----------------------------|
B|-10-13-11-----------10-11--10-10--11-10-8--8-10-13-13-10-10-8-|
G|---------10-10-10-12---------------------10-------------------|
D|--------------------------------------------------------------|
A|--------------------------------------------------------------|
E|--------------------------------------------------------------|
  Verse 2
e|----------------------1-------------------------|
B|---------------------------3-----3-----5-----5--|
G|-------------0-2-2-0-2-2------------------------|
D|--------0-2-3---3-3-----------------------------|
A|-5-3-5-3----------------1-1-1-1-1-1-3-3-3-3-3-3-|
E|------------------------------------------------|
  The stars are aligned/They dance to the music of the deepest emotion/And all of the 
is singing in tune/As the heavens are caving in/Mysterious ways why God gave His life/To 
inside my soul
  Pre-Chorus
e|----------------|
B|-0--3~--0--3~---|
G|-0--2~--0--2~---|
D|----------------|
A|----------------|
E|----------------|
  It's bigger than cold religion/It's bigger than life
   Chorus
   Bridge(2x)
e|-------------------------------------|
B|-------------------------------------|
G|----------------------------55555555-|
D|-88888888\33333333/88888888-55555555-|
A|-88888888\33333333/88888888-33333333-|
E|-66666666\11111111/66666666----------|
  Intro
  Pre-Chorus
  Chorus(2x)
  End
    That's it.God bless.
                    -Josh
Tap to rate this tab
# A B C D E F G H I J K L M N O P Q R S T U V W X Y Z