Guitaretab - guitar tabs
Song name
# A B C D E F G H I J K L M N O P Q R S T U V W X Y Z

Switchfoot - Ammunition tab

Artist: Switchfoot
Song: Ammunition
Album: The Beautiful Letdown

Drum and Bass intro

Intro
e|-------------------------------|
B|--------------5----------------|
G|--4~--6/1~-------43~----------|
D|------------------------------|
A|------------------------------|
E|-------------------------------|

w/o dist
e|-------------------------------|
B|-------------------------------|
G|--4-4-444-3-33--8-888---------|
D|------------------------------| x2
A|--2-2-222-1-11--6666---------|
E|-------------------------------|

w/ dist
e|-------------------------------|
B|-------------------------------|
G|--4-4-444-3-33--8-888---------|
D|------------------------------| x4
A|--2-2-222-1-11--6666---------|
E|-------------------------------|

Verse 1
e|-----------------------------------------|
B|-----------------------------------------|
G|--14-14-14-14--12-12-12-12--11-1111-11--|
D|----------------------------------------|
A|--12-12-12-12--10-1010-10--9--9--9-9---|
E|-----------------------------------------|

e|--------------------------|
B|--------------------------|
G|--14-14-14-14--12-12------|
D|--------------------------|
A|--12-12-12-12--10-10------|
E|--------------------------|

e|-------------------------------|
B|-------------------------------|
G|--4-4-444-3-33--8-888---------|
D|------------------------------| x2
A|--2-2-222-1-11--6666---------|
E|-------------------------------|

Verse 1
e|-----------------------------------------|
B|-----------------------------------------|
G|--14-14-14-14--12-12-12-12--11-1111-11--|
D|----------------------------------------|
A|--12-12-12-12--10-1010-10--9--9--9-9---|
E|-----------------------------------------|

e|--------------------------|
B|--------------------------|
G|--14-14-14-14--12-12------|
D|--------------------------|
A|--12-12-12-12--10-10------|
E|--------------------------|

e|-------------------------------|
B|-------------------------------|
G|--4-4-444-3-33--8-888---------|
D|------------------------------| x2
A|--2-2-222-1-11--6666---------|
E|-------------------------------|
Chorus
e|---------------------------------------------|
B|---------------------------------------------|
G|--4/66-4-6---------------9-99999-------------|
D|--4/66-4-6--7-7777777----9-99999--4-4444444--| x3
A|--2/44-2-4--7-7777777---7-77777--4-4444444--|
E|------------5-5555555-------------2-2222222--|

e|-------------------------------|
B|-------------------------------|
G|-------------------------------|
D|--7-77777--9-9999999----------|x3
A|--7-77777--9-9999999----------|
E|--5-55555--7-7777777-----------|
*on 3rd ,mute the last 7-9's
[ Tab from: http://www.guitaretab.com/s/switchfoot/131905.html ]
e|-------------------------------|
B|-------------------------------|
G|--4-4-444-3-33--8-888---------|
D|------------------------------| x2
A|--2-2-222-1-11--6666---------|
E|-------------------------------|

Verse 2 same as 1

Chorus

Bridge
e|-------------------------------|
B|-------------------------------|
G|-------------------------------|
D|--55555555-77777777-----------|
A|--55555555-77777777------------|
E|--33333333-55555555------------|

e|-------------------------------|
B|-------------------------------|
G|--4-4-444-3-33--8-888---------|
D|------------------------------| x2
A|--2-2-222-1-11--6666---------|
E|-------------------------------|

e|-------------------------------|
B|-------------------------------|
G|-------------------------------|
D|--55555555-77777777-----------|
A|--55555555-77777777------------|
E|--33333333-55555555------------|

e|-------------------------------|
B|-------------------------------|
G|--4-4-444-3-33--8-888---------|
D|------------------------------| x2
A|--2-2-222-1-11--6666---------|
E|-------------------------------|

e|-------------------------------|
B|-------------------------------|
G|-------------------------------|
D|--55555555-77777777-----------| x3
A|--55555555-77777777------------|
E|--33333333-55555555------------|

e|-------------------------------|
B|-------------------------------|
G|--4-4-444-3-33--8-888---------|
D|------------------------------| x2
A|--2-2-222-1-11--6666---------|
E|-------------------------------|

Chorus w/ warm dist
e|---------------------------------------------|
B|---------------------------------------------|
G|--4/66-4-6---------------9-99999-------------|
D|--4/66-4-6--7-7777777----9-99999--4-4444444--| x3
A|--2/44-2-4--7-7777777---7-77777--4-4444444--|
E|------------5-5555555-------------2-2222222--|

e|-------------------------------|
B|-------------------------------|
G|-------------------------------|
D|--7-77777--9-9999999----------|x3
A|--7-77777--9-9999999----------|
E|--5-55555--7-7777777-----------|
*on 3rd ,mute the last 7-9's

e|-------------------------------|
B|-------------------------------|
G|--4-4-444-3-33--8-888---------|
D|------------------------------| 
A|--2-2-222-1-11--6666---------|
E|-------------------------------|

e|-------------------------------|
B|-------------------------------|
G|-------------------------------|
D|--7-77777--9-9999999----------|x3
A|--7-77777--9-9999999----------|
E|--5-55555--7-7777777-----------|
*on 3rd ,mute the last 7-9's

e|-------------------------------|
B|-------------------------------|
G|--4-4-444-3-33--8-888---------|
D|------------------------------| x3
A|--2-2-222-1-11--6666---------|
E|-------------------------------|
Related for Ammunition tab