Guitaretab - guitar tabs
Song name
# A B C D E F G H I J K L M N O P Q R S T U V W X Y Z

Switchfoot - This Is Your Life tab

Band: Switchfoot
Album: The Beautiful Letdown
Email: Arbiter1023@sbcglobal.net
Tuning: Standard
There were no tabs for this song.I think.
So i would tab it out then.

Intro/verse: Repeat.

E|------------------------------|
B|------------------------------|
G|------------------------------|
D|-------------------------6----|
A|-7--4-7-4--4-7--4--4--7--|
E|--4-------4---------5--------|

Chorus: Strum chords.
[ Tab from: http://www.guitaretab.com/s/switchfoot/135032.html ]
E|----------------------------------------------|
B|----------------------------------------------|
G|-9-----------9------------9-------------------|
D|-9------7----9-----7------9--------6--------7-|
A|-7-----7----7-----7------7--------6--------7-|
E|-------5----------5---------------4--------5-|
 .life....be..life...be...dream....younger..lose.


Small Solo: Repeat.

E|--4-----5-4---|
B|2-----2----5-|
G|-----4---------|
D|---------------|
A|---------------|
E|--------------|
Related for This Is Your Life tab