Song name
# A B C D E F G H I J K L M N O P Q R S T U V W X Y Z

Switchfoot - Stars tab

Help us improve GuitareTab! Take a short survey!
-------------------------------------------------------------------------------
			     Stars - Switchfoot
-------------------------------------------------------------------------------
Tabbed by:Jon Foreman
Email:
Album:Nothing is Sound
Tuning:drop D DADGBe
 Guitar I Intro lick
e|-----------------------------------------------|----------------------------|
B|-----------------------------------------------|----------------------------|
G|-----------------------------------------------|----------------------------|
D|-----------------------------------------------|----------------------------|
A|-7--4-5-----4-----7---6-9-7-----4-5-----7-7-7--|---5-4-5-4-5-----4-----7----|
D|-0------0-0---0-0---0-------0-0-----0-0--------|-------------0-0---0-0---0--|
                                  (Keep playing this 'till verse)
e|--------------------------------|-------------------------------------------|
B|--------------------------------|-------------------------------------------|
G|--------------------------------|-------------------------------------------|
D|--------------------------------|-------------------------------------------|
A|-6-9-7-----4-5-----4-----7-7-7--|-------------------------------------------|
D|-------0-0-----0-0---0-0--------|-------------------------------------------|
  Guitar II Intro lick (comes in after guitar 1 plays that intro a few times)
e|----------------------------------|-----------------------------------------|
B|----------------------------------|-----------------------------------------|
G|----------------------------------|-----------------------------------------|
D|----------------------------------|-------------------------2-2-2-----------|
A|-------4-5--------------------4-5-|-------4-5-------------------------------|
D|-0-2-0------4-7-4--2-5-2--0-2-----|-0-2-0------4-7-4---2-5-2----------------|
  Verse             (Each chord indicates 1 beat in the song, listen to song to figure 
strum patterns)
e|-2-2-2-2-2-2-2-2---3-3-3-3---2-2-2-2---3-3-3-3---3-3-3-3--------------------|
B|-3-3-3-3-3-3-3-3---3-3-3-3---3-3-3-3---3-3-3-3---3-3-3-3---3-3-3-3----------|
G|-2-2-2-2-2-2-2-2-------------2-2-2-2-----------------------2-2-2-2---2-2-2-2|
D|-----------------------------------------------------------2-2-2-2---2-2-2-2|
A|---------------------------------------3-3-3-3-----------------------0-0-0-0|
D|-------------------5-5-5-5-----------------------5-5-5-5--------------------|
  Pre Chorus        Chorus (for chorus each chord represents 1 beat, listen to song to 
exact strum pattern
e|-3--------------|-2-2-2-2-2-2-2-2--3-3-3-3-3-3-3-3--3-3-3-3--3-3-3-3--------|
B|-3-------3---3--|-3-3-3-3-3-3-3-3--3-3-3-3-3-3-3-3--3-3-3-3--3-3-3-3--------|
G|-----2---2---3--|-2-2-2-2-2-2-2-2-------------------------------------------|
D|-----2----------|-----------------------------------------------------------|
A|-----0---2---3--|-----------------------------------3-3-3-3-----------------|
D|-5--------------|------------------5-5-5-5-5-5-5-5-----------5-5-5-5--------|

e|-------------------------------2-2-2-2-2-2-2-2--3-3-3-3-3-3-3-3---3---------|
B|-------------------------------3-3-3-3-3-3-3-3--3-3-3-3-3-3-3-3---3---------|
G|-------------------------------2-2-2-2-2-2-2-2------------------------------|
D|---------------4-----2--2-2-2-----------------------------------------------|
A|-------4-5--------------------------------------------------------3---------|
D|-0-2-0-----4-7---2-5----------------------------5-5-5-5-5-5-5-5-------------|

e|--------------------------------------------------------------|
B|--------------------------------------------------------------|
G|--------------------------------------------------------------|
D|---------------4-----2------------------------4-----2--2-2-2--|
A|-------4-5----------------4-5--------4-5----------------------|
D|-0-2-0-----4-7---2-5---2-------0-2-0------4-7---2-5-----------|
Related for Stars tab