Song name
# A B C D E F G H I J K L M N O P Q R S T U V W X Y Z

Switchfoot - Something More tab

Something More (Augustine's Confession)
Switchfoot


Intro:

E-(4)/9-

Verse:
(riff1)
E--------------------------------------------------|
B--------------------------------------------------|
G-------------------------------------------6/7-6--|
D-11--13-13---11--11--13-13-----11--9-9------------|
A--9---9--9----9---9---9--9------7--7-7-----4/5-4--|
D--9---9--9----9---9---9--9------7--7-7------------|


(riff2)
E-----------------------------------------------------|
B-----------------------------------------------------|
G-------------------------------------------6/7-6-9-8-|
D-11--13-13---11--11--13-13-----11--9-9---------------|
A--9---9--9----9---9---9--9------7--7-7-----4/5-4-7-6-|
D--9---9--9----9---9---9--9------7--7-7---------------|


(riff1)
E--------------------------------------------------|
B--------------------------------------------------|
G-------------------------------------------6/7-6--|
D-11--13-13---11--11--13-13-----11--9-9------------|
A--9---9--9----9---9---9--9------7--7-7-----4/5-4--|
D--9---9--9----9---9---9--9------7--7-7------------|


(riff1)
E--------------------------------------------------|
B--------------------------------------------------|
G-------------------------------------------6/7-6--|
D-11--13-13---11--11--13-13-----11--9-9------------|
A--9---9--9----9---9---9--9------7--7-7-----4/5-4--|
D--9---9--9----9---9---9--9------7--7-7------------|


Pre-Chorus:
E--------------------------------|
B--------------------------------|
G----(4)/6-6--4-4--x-x--2-2------|
D-6----------------x-x--2-2--2-2-|
A-6--(2)/4-4--2-2--x-x--0-0--2-2-|
D-6--------------------------2-2-|

E--------------------------------|
B--------------------------------|
G----(4)/6-6--4-4--x-x--2-2--4-4-|
D-6----------------x-x--2-2--4-4-|
A-6--(2)/4-4--2-2--x-x--0-0--2-2-|
D-6------------------------------|

Chorus:
E----------------------------------------------|
B----------------------------------------------|
G-9-9-9-9------------------------9-11-13-14-16-|
D-9-9-9-9--7-7-7-7-7--8-8-8-8-8----------------|
A-7-7-7-7--7-7-7-7-7--9-9-9-9-9--7--9-11-12-14-|
D----------7-7-7-7-7--8-8-8-8-8----------------|

Bridge:
(E  C#m  F#/A#  E) x2


E------------------------------------------------|
B------------------------------------------------|
G-9-9-9-9-9--6-6-6-6-6-------------9-11-13-14-16-|
D-9-9-9-9-9--6-6-6-6-6--8-8-8-8-8----------------|
A-7-7-7-7-7--4-4-4-4-4--9-9-9-9-9--7--9-11-12-14-|
D-----------------------8-8-8-8-8----------------|

Breakdown:
E----------------------|
B----------------------|
G-9-9-9--10--5--9-9----|
D----------------------|
A-7-7-7---8--3--7-7----|
D----------------------|

Outro:

D-(4)/9
Tap to rate this tab
# A B C D E F G H I J K L M N O P Q R S T U V W X Y Z