Song name
# A B C D E F G H I J K L M N O P Q R S T U V W X Y Z

Switchfoot - Summer tab

Help us improve GuitareTab! Take a short survey!
e|-2-2-0-0-2-5-2-0-0-|
A|-3-3-3-2-0-0-0-2-3-|
G|-2-0-0-0-0-0-0-0-0-|
D|-0-0-0-0-0-0-0-0-0-|
B|-0-0-0-0-0-0-0-0-0-|
E|-0-0-0-0-0-0-0-0-0-|

Chorus:
e|-2-2-0-0-0-9-2-|
A|-3-2-2-2-7-9-2-|
G|-2-2-2-2-7-9-2-|
D|-0-0-2-0-6-0-0-|
B -0-0-0-0-0-0-0-|
E|-0-0-0-2-0-0-0-|

Solo:
e|-3-0--------------3-0-5-5-7-9-9-10-5-7-9-3--|
A|-----3-0------3-0-------------------------4-|
G|---------3-0-------------------------------2|
D|--------------------------------------------|
B|--------------------------------------------|
E|--------------------------------------------|

Outro:

e|-2-2-0-0-2-5-2-0-0-2-2-|
A|-3-3-3-2-0-0-0-2-3-3-3-|
G|-2-0-0-0-0-0-0-0-0-0-2-|
D|-0-0-0-0-0-0-0-0-0-0-0-|
B|-0-0-0-0-0-0-0-0-0-0-0-|
E|-0-0-0-0-0-0-0-0-0-0-0-|
Related for Summer tab