Guitaretab - guitar tabs
Song name
# A B C D E F G H I J K L M N O P Q R S T U V W X Y Z

Switchfoot - Cmon Cmon tab

This song by Switchfoot is on an EP they sold at a concert I went to. on
the cover it has "(oh!) Switchfoot" on it.

Intro: acoustic
/e------------------------------------------------------------------------>\
|B------------------------------------------------------------------------>|
|G-7-7-7-7-7-7-7-7-7-7-7-7-7-7-7-7-7-7-7-7-7-7-7-7-7-7-7-7-7-7-7-7-7-7-7-->|
|D------------------------------------------------------------------------>|
|A------------------------------------------------------------------------>|
|E------------------------------------------------------------------------>|
|  * * * * * * * * * * * * * * * * * * * * * * * * * * * * * * * * * * *   |
|Intro: (r= 10th fret)                                                      |
|e-----------------------------------9r9---9r9---9r9---9r9---9r9---9r9---->|
|B--------------------------------------r7r---r7r---r8r---r8r---r8r---r8r->|
|G------------------------------------------------------------------------>|
|D------------------------------------------------------------------------>|
|A------------------------------------------------------------------------>|
\E------------------------------------------------------------------------>/

acoustic: (PLAY THIS THROUGH THE REST OF THE SONG)
e--55555555555555555555555555555555555555555555555555555555555555555555555->
B--77777777777777777777777777777777777777777777777777777777777777777777777->
G--77777777777777777777777777777777777777777777777777777777777777777777777->
D--77777777777777777755555555555555555577777777777777777755555555555555555->
A--555555555555555555------------------055555555555555555------------------>
E-------------------------------------------------------------------------->

Verse 1:
youíve been living life like itís a sequel and youíre already bored with
the plot as if the cast and the score are more money than before but the
script and the backdrops are stock weíve got the rest of our lives to
regret all the words that were said here tonight but Iíll bet that the
morning in the morning weíll find us in bloom
[ Tab from: http://www.guitaretab.com/s/switchfoot/149375.html ]
chorus: electric (no distortion) (repeat)
e-5~----5----------------5---------------5~----5----------------5---------->
B-7~----7----------------8---------------7~----7----------------8---------->
G-7~----7----------------7---------------7~----7----------------7---------->
D-7~----7----------------5---------------7~----7----------------5---------->
A-5~----5--------------------------------5~----5--------------------------->
E-------------------------------------------------------------------------->
so címon, címon, címon, letís not be our parents oh címon, címon, címon,
letís follow this through oh címon, címon, címon, everythingís waiting we
will rise with the wings of the dawn when everythingís new, when
everythingís new

fill: electric
e-5~--------------5~------------------->
B-7~--------------8~------------------->
G-7~--------------7~------------------->
D-7~--------------5~------------------->
A-5~----------------------------------->
E-------------------------------------->

Verse 2:
let us rise up with the summer sun let these songs awaken the dawn let us
breathe every breath like a gift to be kept let us breathe it all in Ďtill
itís gone weíve got the rest of our lives to live out all these dreams that
we stayed up tonight talking about in the morning to start hoping itíd not
be too soon

chorus: electric (no distortion) (repeat 2x)
e-5~----5-------5--------5--------5------5~----5---------5------5-------5-->
B-7~----7-------7--------8--------8------7~----7---------7------8-------8-->
G-7~----7-------7--------7--------7------7~----7---------7------7-------7-->
D-7~----7-------7--------5--------5------7~----7---------7------5-------5-->
A-5~----5-------5------------------------5~----5---------5----------------->
E-------------------------------------------------------------------------->
ah, so címon, címon, címon, letís abandon this darkness oh címon, címon,
címon, letís follow this through yeah, so címon, címon, címon, everythingís
waiting weíll be lit up like fire and gold when everythingís new when
everythingís new, when everythingís new, when everythingís new, when
everythingís new, when everythingís new

end on: (electric - no distortion)
e-10~---------------------------------------------->
B-10~---------------------------------------------->
G-11~---------------------------------------------->
D-12~---------------------------------------------->
A-12~---------------------------------------------->
E-10~---------------------------------------------->
Related for Cmon Cmon tab