Song name
# A B C D E F G H I J K L M N O P Q R S T U V W X Y Z

Switchfoot - Head Over Heels Acoustic tab

Switchfoot
Head Over Heels [Acoustic]
Oh! Gravity

This is the acoustic version of “Head Over Heels” by Switchfoot, enjoy!

Drop Db [Db Ab Db Gb Bb Eb]

Intro
Eb|--------------------------------------------------------------------|
Bb|--------------------------------------------------------------------|
Gb|-7-7-7-7-7-7-7-7--7-7-7-7-7-7-7-7--7-7-7-7-7-7-7-7--7-7-7-7-7-7-7-7-|
Db|-7-7-7-7-7-7-7-7--7-7-7-7-7-7-7-7--7-7-7-7-7-7-7-7--8-8-8-8-8-8-8-8-|
Ab|-5-5-5-5-5-5-5-5--5-5-5-5-5-5-5-5--5-5-5-5-5-5-5-5--5-5-5-5-5-5-5-5-|
Db|------------------5-5-5-5-5-5-5-5-------------------5-5-5-5-5-5-5-5-|

Verse 1
“head over here…”
Eb|--------------------------------------------------------------------|
Bb|--------------------------------------------------------------------|
Gb|-7-7-7-7-7-7-7-7--7-7-7-7-7-7-7-7--7-7-7-7-7-7-7-7--7-7-7-7-7-7-7-7-|
Db|-7-7-7-7-7-7-7-7--8-8-8-8-8-8-8-8--7-7-7-7-7-7-7-7--8-8-8-8-8-8-8-8-|
Ab|-5-5-5-5-5-5-5-5--5-5-5-5-5-5-5-5--5-5-5-5-5-5-5-5--5-5-5-5-5-5-5-5-|
Db|------------------5-5-5-5-5-5-5-5-------------------5-5-5-5-5-5-5-5-|

“when I told you…”
Eb|-------------------------------------------|
Bb|-------------------------------------------|
Gb|-11-11-11-11---9--9--9--9--7-7-7-7-7-7-7-7-|
Db|-12-12-12-12--10-10-10-10--8-8-8-8-8-8-8-8-|
Ab|--9--9--9--9---7--7--7--7--5-5-5-5-5-5-5-5-|
Db|--9--9--9--9---7--7--7--7--5-5-5-5-5-5-5-5-|

“i was yours, yours…”
Eb|----------------------------------|
Bb|----------------------------------|
Gb|-7-7-7-7-7-7-7-7--7-7-7-7-7-7-7-7-|
Db|-7-7-7-7-7-7-7-7--7-7-7-7-7-7-7-7-|
Ab|-5-5-5-5-5-5-5-5--5-5-5-5-5-5-5-5-|
Db|------------------5-5-5-5-5-5-5-5-|

Chorus
“in this life…”
Eb|--------------------------------------------------------------------|
Bb|--------------------------------------------------------------------|
Gb|-7-7-7-7-7-7-7-7--7-7-7-7-7-7-7-7--7-7-7-7-7-7-7-7--7-7-7-7-7-7-7-7-|
Db|-7-7-7-7-7-7-7-7--7-7-7-7-7-7-7-7--7-7-7-7-7-7-7-7--7-7-7-7-7-7-7-7-|
Ab|-5-5-5-5-5-5-5-5--5-5-5-5-5-5-5-5--5-5-5-5-5-5-5-5--5-5-5-5-5-5-5-5-|
Db|------------------5-5-5-5-5-5-5-5-------------------5-5-5-5-5-5-5-5-|

“in this life…”
Eb|------------------------------------------|
Bb|------------------------------------------|
Gb|-11-11-11-11-11-11-11-11--7-7-7-7-7-7-7-7-|
Db|-12-12-12-12-12-12-12-12--8-8-8-8-8-8-8-8-|
Ab|--9--9--9--9--9--9--9--9--5-5-5-5-5-5-5-5-|
Db|--9--9--9--9--9--9--9--9--5-5-5-5-5-5-5-5-|

“you’re every thing that’s fair in love & war…”
Eb|-------|
Bb|-------|
Gb|-11----|
Db|-12--7-|
Ab|--9--5-|
Db|--9--5-|

Interlude
Eb|--------------------------------------------------|
Bb|--------------------------------------------------|
Gb|-11-11-11-11-11-11-11-11--12-12-12-12-12-12-12-12-|
Db|-11-11-11-11-11-11-11-11--12-12-12-12-12-12-12-12-|
Ab|--9--9--9--9--9--9--9--9--10-10-10-10-10-10-10-10-|
Db|--------------------------------------------------|

Verse 2 - 2x
“i’m coming down…”
Eb|--------------------------------------------------|
Bb|--------------------------------------------------|
Gb|-11-11-11-11-11-11-11-11--12-12-12-12-12-12-12-12-|
Db|-11-11-11-11-11-11-11-11--12-12-12-12-12-12-12-12-|
Ab|--9--9--9--9--9--9--9--9--10-10-10-10-10-10-10-10-|
Db|--------------------------------------------------|

“you’re the mark…”
Eb|-------------------------------------------|
Bb|-------------------------------------------|
Gb|-11-11-11-11---9--9--9--9--7-7-7-7-7-7-7-7-|
Db|-12-12-12-12--10-10-10-10--8-8-8-8-8-8-8-8-|
Ab|--9--9--9--9---7--7--7--7--5-5-5-5-5-5-5-5-|
Db|--9--9--9--9---7--7--7--7--5-5-5-5-5-5-5-5-|

“i was yours, yours…”
Eb|----------------------------------|
Bb|----------------------------------|
Gb|-7-7-7-7-7-7-7-7--7-7-7-7-7-7-7-7-|
Db|-7-7-7-7-7-7-7-7--7-7-7-7-7-7-7-7-|
Ab|-5-5-5-5-5-5-5-5--5-5-5-5-5-5-5-5-|
Db|------------------5-5-5-5-5-5-5-5-|

Chorus
“in this life…”
Eb|--------------------------------------------------------------------|
Bb|--------------------------------------------------------------------|
Gb|-7-7-7-7-7-7-7-7--7-7-7-7-7-7-7-7--7-7-7-7-7-7-7-7--7-7-7-7-7-7-7-7-|
Db|-7-7-7-7-7-7-7-7--7-7-7-7-7-7-7-7--7-7-7-7-7-7-7-7--7-7-7-7-7-7-7-7-|
Ab|-5-5-5-5-5-5-5-5--5-5-5-5-5-5-5-5--5-5-5-5-5-5-5-5--5-5-5-5-5-5-5-5-|
Db|------------------5-5-5-5-5-5-5-5-------------------5-5-5-5-5-5-5-5-|

“in this life…”
Eb|------------------------------------------|
Bb|------------------------------------------|
Gb|-11-11-11-11-11-11-11-11--7-7-7-7-7-7-7-7-|
Db|-12-12-12-12-12-12-12-12--8-8-8-8-8-8-8-8-|
Ab|--9--9--9--9--9--9--9--9--5-5-5-5-5-5-5-5-|
Db|--9--9--9--9--9--9--9--9--5-5-5-5-5-5-5-5-|

“you’re every thing that’s fair in love…”
Eb|-------|
Bb|-------|
Gb|-11----|
Db|-12--7-|
Ab|--9--5-|
Db|--9--5-|

Bridge- Part 1
“& war, in love & war, in love & war…”
Eb|--------------------------|
Bb|--------------------------|
Gb|--------------------------|
Db|-9--5--9--7--9--11--12--5-|
Ab|-9--5--9--7--9--12--12--5-|
Db|-9--5--9--7--9--11--12--5-|

Bridge - Part 2
“head over heels…”
Eb|------------------------------------------|
Bb|------------------------------------------|
Gb|-11-11-11-11-11-11-11-11--7-7-7-7-7-7-7-7-|
Db|-12-12-12-12-12-12-12-12--7-7-7-7-7-7-7-7-|
Ab|--9--9--9--9--9--9--9--9--5-5-5-5-5-5-5-5-|
Db|--9--9--9--9--9--9--9--9--5-5-5-5-5-5-5-5-|

Eb|------------------------------------------|
Bb|------------------------------------------|
Gb|-11-11-11-11-11-11-11-11--7-7-7-7-7-7-7-7-|
Db|-12-12-12-12-12-12-12-12--7-7-7-7-7-7-7-7-|
Ab|--9--9--9--9--9--9--9--9--5-5-5-5-5-5-5-5-|
Db|--9--9--9--9--9--9--9--9--5-5-5-5-5-5-5-5-|

Chorus
“in this life, i’m stubborn to the core…”
Eb|--------------------------------------------------------------------|
Bb|--------------------------------------------------------------------|
Gb|-7-7-7-7-7-7-7-7--7-7-7-7-7-7-7-7--7-7-7-7-7-7-7-7--7-7-7-7-7-7-7-7-|
Db|-7-7-7-7-7-7-7-7--7-7-7-7-7-7-7-7--7-7-7-7-7-7-7-7--7-7-7-7-7-7-7-7-|
Ab|-5-5-5-5-5-5-5-5--5-5-5-5-5-5-5-5--5-5-5-5-5-5-5-5--5-5-5-5-5-5-5-5-|
Db|------------------5-5-5-5-5-5-5-5-------------------5-5-5-5-5-5-5-5-|

“we both know…”
Eb|------------------------------------------|
Bb|------------------------------------------|
Gb|-11-11-11-11-11-11-11-11--7-7-7-7-7-7-7-7-|
Db|-12-12-12-12-12-12-12-12--7-7-7-7-7-7-7-7-|
Ab|--9--9--9--9--9--9--9--9--5-5-5-5-5-5-5-5-|
Db|--9--9--9--9--9--9--9--9--5-5-5-5-5-5-5-5-|

“you’re everything that’s fair…”
Eb|-----------------|
Bb|-----------------|
Gb|-5-5-5-5-5-5-5-5-|
Db|-5-5-5-5-5-5-5-5-|
Ab|-3-3-3-3-3-3-3-3-|
Db|-----------------|

Post Chorus - 2x
“in this life you’re my only one…”
Eb|----------------------------------|
Bb|----------------------------------|
Gb|-7-7-7-7-7-7-7-7--7-7-7-7-7-7-7-7-|
Db|-7-7-7-7-7-7-7-7--8-8-8-8-8-8-8-8-|
Ab|-5-5-5-5-5-5-5-5--5-5-5-5-5-5-5-5-|
Db|------------------5-5-5-5-5-5-5-5-|

Chorus/Ending
“in this life…”
Eb|---------------------------------------------------|
Bb|---------------------------------------------------|
Gb|-7-7-7-7-7-7-7-7--7-7-7-7-7-7-7-7--11------------7-|
Db|-7-7-7-7-7-7-7-7--7-7-7-7-7-7-7-7--12--7--7-7-7--7-|
Ab|-5-5-5-5-5-5-5-5--5-5-5-5-5-5-5-5---9--5--5-5-5--5-|
Db|------------------5-5-5-5-5-5-5-5---9--5--5-5-5----|

That's it! Feel free to rate & comment.
Tap to rate this tab
 
# A B C D E F G H I J K L M N O P Q R S T U V W X Y Z