Guitaretab - guitar tabs
Song name
# A B C D E F G H I J K L M N O P Q R S T U V W X Y Z

Switchfoot - This Is Home tab

Song:This is Home
Sound Track:The Chronicles of Narnia,Prince Caspian:
Artist:Switchfoot
Date Tabbed:May,2008
Guitar Tabber:Ryan Manongdo/18/Vancouver,Ca
              rhyezkie@gmail.com(gtalk)
              no_falter0x@yahoo.com(YM,friendster,facebook&myspace)

For any comments,questions or suggestions,just post a comment or PM me.Pilipino Rules!!

Gtr.Legend:
~ - let it ring

Gtr.Tuning:Standard(Normal)

Intro:(Keyboard converted to guitar)
e|-----20----20----20----20---------20----20----20----20----20-------|
B|-----20-17-20-17-20-17-20-17------20-17-20-17-20-17-20-17-20--17---|
G|-17~--------------------------17~----------------------------------| Repeat many times...
D|-------------------------------------------------------------------| 
A|-------------------------------------------------------------------|
E|-------------------------------------------------------------------|

Verse 1:I've got my memories...
Play intro

Verse 1 Chords:C,A,Fm,G,A

Pre-Chorus:
e|-1~---0~---3~---------|
B|-3~---3~---3~--3------|
G|-2~---2~---0~----0~---|
D|-0~---2----0~---------|
A|------0~---2~---------|
E|-----------3~---------|

Chorus:This is Home..
e|-0000-3333-0000-1111---0000-3333-1111-0000-3333---1111-0000-0000-33----1111-0000-3~---|
B|-1111-3333-3333-1111---1111-3333-3333-3333-3333---1111-1111-3333-33----1111-1111-3~---|
G|-0000-0000-2222-2222---0000-0000-2222-2222-0000---2222-0000-2222-00----2222-0000-0~---|
D|-2222-0000-2222-3333---2222-0000-0000-2222-0000---3333-2222-2222-00----3333-2222-0~---|
A|-3333-2222-0000-3333---3333-2222------0000-2222---3333-3333-0000-22----3333-3333-2~---|
E|------3333------1111--------3333-----------3333---1111-----------33----1111------3~---|

Verse 2:Belief over misery...
Play Verse 1
[ Tab from: http://www.guitaretab.com/s/switchfoot/166991.html ]
Chorus:This is home...
e|-0000-3333-0000-1111---0000-3333-1111-0000-3333---1111-0000-0000-33----1111-0000-3333---|
B|-1111-3333-3333-1111---1111-3333-3333-3333-3333---1111-1111-3333-33----1111-1111-3333---|
G|-0000-0000-2222-2222---0000-0000-2222-2222-0000---2222-0000-2222-00----2222-0000-0000---|
D|-2222-0000-2222-3333---2222-0000-0000-2222-0000---3333-2222-2222-00----3333-2222-0000---|
A|-3333-2222-0000-3333---3333-2222------0000-2222---3333-3333-0000-22----3333-3333-2222---|
E|------3333------1111--------3333-----------3333---1111-----------33----1111------3333---|

Bridge:And now...
e|-0000-3333-1111-111---0000-3333-1111-1111-0~---|
B|-1111-3333-1111-111---1111-3333-1111-1111-1~---|
G|-0000-0000-1111-222---0000-0000-1111-2222-0~---|
D|-2222-0000-3333-333---2222-0000-3333-3333-2~---|
A|-3333-2222-3333-333---3333-2222-3333-3333-3~---|
E|------3333-1111-111--------3333-1111-1111------|

                                           Hoooo...
e|-------20--------20------20----------------------|
B|-------20--------20------20----------------------|
G|-----------------------------222-444-444---------|
D|-17-15-----17-15---17-15-----222-444-444-33333---|
A|-----------------------------000-222-333-33333---|
E|-----------------------------------------11111---|

Repeat Chorus:

Last Chord:
e|-3~---|
B|-3~---|
G|-0~---|
D|-0~---|
A|-2~---|
E|-3~---|

Outro:Come too far
Play Intro then

e|-3~---|
B|-3~---|
G|-5~---|
D|-5~---|
A|-3~---|
E|------|

End...


Verse 1:
I've got my memories
They're always
Inside of me
But I can't go back
Back to how it was
I believe it now
I've seen too much
But I can't go back
Back to how it was

Pre-Chorus:
Created for a place
I've never known

[Chorus:]
This is home
Now I'm finally
Where I belong
Where I belong
Yeah, this is home
I've been searching
For a place of my own
Now I've found it
Yeah, this is home
Yeah, this is home

Verse 2:
Belief over misery
I've seen the enemy
And I won't go back
Back to how it was
And I've got my heart
Set on
What happens next
I've got my eyes wide
And it's not over yet
We are miracles
And we're not alone

Repeat Chorus:

Bridge:
And now after all
My searching
After all my questions
I'm gonna call it home
I've got
A brand new mindset
I can finally see
The sunset

Repeat Chorus:

Now I know
Yeah, this is home
I've come too far
No, I won't go back
This is home
Related for This Is Home tab
Advertisement will be closed in 10 seconds