Song name
# A B C D E F G H I J K L M N O P Q R S T U V W X Y Z

Switchfoot - Vice Verses tab

Switchfoot
Vice Verses
Vice Verses -- 2010

This is a new song by Switchfoot that won't be out until 2010 but there is a live 
of this song on youtube.
This song has a LOT of repeating in it -- don't let the tab scare you -- it's not as bad 
it looks!
The song has the exact same picking pattern through almost the whole thing.
This pattern is shown the section below called "Main Riff."
You'll notice throughout the verses and chorus that this pattern seems completely out of sync.
But in reality it's not, but I merely aligned the words of the song with the actual 
notes.
So hopefully it's not to hard to follow along to!
Thanks and enjoy!

Tuning - Drop D (D A d G B E)
*Chords are listed at end of song

Main Riff
e|----------------------------------------------------------|
B|----------------------------------------------------------|
G|----------------------------------------------------------|
D|------2------2------2------2-------4------4-----4------4--|
A|--0------0------0------0-------0------0------0-----0------|
D|----0------0------0------0-------0------0------0-----0----|

Intro
Main Riff - 2x

Verse 1
       Walking   along the high tide    line
       Looking for signs in the night   sky
e|-----------------------------------------|
B|-----------------------------------------|
G|-----------------------------------------|
D|------2----------2------------2-------2--|
A|--0--------0--------0------------0-------|
D|----0----------0--------0-----------0----|

     Watching the pacific from the sidelines
     Wishing that I wasn't such a nice    guy
e|-------------------------------------------|
B|-------------------------------------------|
G|-------------------------------------------|
D|------4-----------4-------------4-------4--|
A|--0----------0----------0----------0-------|
D|----0----------0-------------0--------0----|

        Wonder what it means to live together?
        Wonder what it means to live forever?
e|----------------------------------------|
B|----------------------------------------|
G|----------------------------------------|
D|------6--------------6--------6------6--|
A|--0----------0-----------0-------0------|
D|----0------------0----------0------0----|

      Looking for more than just guidelines
      Wonder what it  means  to  die?
e|-------------------------------------------|
B|-------------------------------------------|
G|-------------------------------------------|
D|------4---------4--------------4--------4--|
A|--0-------0-------------0----------0-------|
D|----0--------0--------------0---------0----|

Chorus
     I know that there's a meaning to it all
e|---------------------------------------------------------------|
B|---------------------------------------------------------------|
G|---------------------------------------------------------------|
D|------2--------2---------2-------2-----4------4------4------4--|
A|--0------0---------0--------0-------0-----0------0------0------|
D|----0-------0---------0-------0-------0-----0------0------0----|

      A little resurrection every time I fall
e|----------------------------------------------------------------|
B|----------------------------------------------------------------|
G|----------------------------------------------------------------|
D|------2-------2-------2---------2------4------4-------4------4--|
A|--0------0-------0--------0--------0------0------0-------0------|
D|----0-------0-------0--------0-------0------0------0-------0----|

   You got your babies, I   got  my  hearses
e|-----------------------------------------|
B|-----------------------------------------|
G|-----------------------------------------|
D|--7-----------7-------6------------6-----|
A|-----0------------0-------0-----------0--|
D|---------4---------------------2---------|

        Every blessing comes with a set of curses
e|--------------------------------------------|
B|--------------------------------------------|
G|--------------------------------------------|
D|------4--------------4------------4------4--|
A|--0--------0-------------0-----------0------|
D|----0------------0------------0--------0----|

    I got my vices, I got my vice verses, I got my vice verses
e|------------------------------------------------------|------------------|
B|------------------------------------------------------|------------------|
G|------------------------------------------------------|------------------|
D|--6--------6------6--------6-----4-----4--6------6----Back to Main Riff--|
A|----0---------0-----0---------0----0--------0------0---------------------|
D|--------2----------------2-----------0--------2--------------------------|

Interlude - Same as Intro

Verse 2 - Same as V1
The wind could be my new obsession
The wind could be my new depression
The wind goes anywhere it wants to
Wishing that I learned my lesson
The ocean sounds like a garage band
Coming at me like a drunk man
The ocean tells me a thousand stories
None of them are lies

Chorus

Bridge
Bm        A     Asus2
Let the pacific laugh
Bm       A   Asus2
Be on my epitaph
          Dsus2*     Asus2
With it's rising and falling
    Dsus2* Asus2          Dsus2*
And after  all, it's just water
    Asus2     Dsus2*
And I am just soul
       D/F#    Asus2     Dsus2*
With a body of water and bones
          Back into Main Riff
Water and bones

Verse 3 - Same as V1 & V2
Where is God in the night sky?
Where is God in the city light?
Where is God in the earthquake?
Where is God in the genocide?
Where are you in my broken heart?
Everything seems to fall apart
Everything feels rusted over
Tell me that you're there

Chorus

*Chords Used
  Dsus2  D  Db5  F#3  Esus4  Bm  A  Asus2  Dsus2*  D/F#
e|-------------------------------------------0---------|
B|---------------------------3---2----0------3------2--|
G|---------------------------4---2----2------2------3--|
D|--2----4---6----7-----6----4---2----2------0------4--|
A|--0----0---0----0-----0----2---0----0----------------|
D|--0----0---0----4-----2------------------------------|
Tap to rate this tab
 
# A B C D E F G H I J K L M N O P Q R S T U V W X Y Z