Song name
# A B C D E F G H I J K L M N O P Q R S T U V W X Y Z

Switchfoot - Bullet Soul tab

Switchfoot
Bullet Soul
Hello Hurricane -- 2009

Tuning - Standard (E A D G B e)

V2 Riff
e|---------------------------------------|
B|---------------------------------------|
G|--1-1-1-1-1-1-2-2-4-4-4-4-2-2-2-2-2-2--|
D|---------------------------------------| 
A|---------------------------------------|
E|---------------------------------------|

Intro
Part 1
e|-------------------------------------|
B|-------------------------------------|
G|-------------------------------------|
D|--2-2-2-2-2-2------------------------| 2x
A|---------------0-0----------5-5-5-5--|
E|-------------------3-3-3-3-----------|

Part 2
e|-------------------------------------------------------|
B|-------------------------------------------------------|
G|--9-9-9-9-----------7-7-7-7--9-9/12-9---------7-7-7-7--|
D|--9-9-9-9--7\5-5-5--7-7-7-7--9-9/-x-9--5-5-5--7-7-7-7--| 
A|--7-7-7-7--7\5-5-5--5-5-5-5--7-7/10-7--5-5-5--5-5-5-5--|
E|-----------5\3-3-3---------------------3-3-3-----------|

Verse 1 - Same as Intro Part 1
I wanna take it for all the dreamers
I'm singing this one for the sparks
Here's one for the friction makers
We are the bleeding hearts
Don't care whoever you are

Chorus
E5               A5 G5   D5
We rise and fall together
E5                    A5 G5  D5
Our hearts still beat below
E5                 A5 G5  D5
You can't stand by forever 
         G5                A5      
You're a kid with a bullet soul
                    Intro Part 2
Are you ready to go? 

Are you ready to go? 

Verse 2 - V2 Riff
I wanna turn up the radiation 
I wanna glow in the dark 
Love is the one truth in relation
Love is the only art
Don't matter where you go

Chorus 

Interlude
Part 1
e|-------------------------|
B|-------------------------|
G|-------------------------|
D|--9-9-9-9--4/5-5--7-7-7--| 3x 
A|--9-9-9-9--4/5-5--7-7-7--|
E|--7-7-7-7--2/3-3--5-5-5--|

Part 2
e|------------------------------------------|
B|--12^--14^--15^--17^--12^--14^--15^--18^--|
G|---x----x----x----x----x----x----x----x---|
D|---9^--11^--12^--14^---9^--11^--12^--15^--| 
A|------------------------------------------|
E|------------------------------------------|
NOTE: I made them octaves to make it more interesting, but you 
might be able to get away with just playing the single notes.

Verse 3 - Same as Verse 1
We are the children of the scarred
We need a second start
Yeah, yeah 

Chorus 
Tap to rate this tab
# A B C D E F G H I J K L M N O P Q R S T U V W X Y Z