Song name
# A B C D E F G H I J K L M N O P Q R S T U V W X Y Z

Switchfoot - Always Something chords

Highlighted       Show chord diagrams
Switchfoot
Always
Hello Hurricane -- 2009

These are chords for Switchfoot's new song "Always" from their
upcoming album/release Hello Hurricane -- due out in November '09.

Tuning - Standard (E A D G B E)
*Chords are listed at end of song

Intro
C

Verse 1
C
this is the start 
F
this is your heart 
Am          Gsus4        F      
this is the day you were born 
C
this is the sun 
F
these are your lungs 
Am          Gsus4        F
this is the day you were born 

Chorus
         Am  F
And I am al--ways
C   F
Al--ways 
Am  F    C
Al--ways yours 


Verse 2
C
These are the scars 
F
Deep in your heart 
Am          Gsus4          F   
This is the place you were born 
Am          C 
This is the hole 
      F            C  
Where most of your soul 
      G/B     Am
Comes ripping out 
         Gsus4              F  
From the places you've been torn 


Chorus - 2x

Interlude 2
Am F C G/B [3x]
Am F C 

Slide Guitar 
e|-----------------------------------------------|
B|--1/8--10\5--1/8--10\5--1/8--13\10--1/8--10\5--|
G|-----------------------------------------------|
D|-----------------------------------------------|
A|-----------------------------------------------|
E|-----------------------------------------------|

Bridge
      F
Hallelujah! 
        C
I'm caving in 
      F
Hallelujah! 
            C     G/B
I'm in love again 
      Am
Hallelujah! 
F              C  G/B
I'm a wretched man 
      Am
Hallelujah! 
      F                  C 
Every breath is a second chance 

Chorus - 2x

*Chords Used
    C  F  Am  Gsus4  G/B    
e|--------------3-----3--|
B|--1--1--1-----1-----1--|
G|--0--2--2-----0-----0--|
D|--2--3--2-----0-----0--|
A|--3--3--0-----2-----2--|
E|--------------3--------|
Tap to rate this tab
# A B C D E F G H I J K L M N O P Q R S T U V W X Y Z