Song name
# A B C D E F G H I J K L M N O P Q R S T U V W X Y Z

Switchfoot - Yesterdays tab

Switchfoot - Yesterdays
Tabbed by: matt warner
Email: southtownmatt@gmail.com

Tuning: Standard

You can leave the D string open on all these chords if you want.

Intro
e|---------------------------------------------------------------------------|
B|---------------------------------------------------------------------------|
G|--7---6--4----11--2--4----7--6--4----11--14--2--4--------------------------|
D|---------------------------------------------------------------------------|
A|---------------------------------------------------------------------------|
E|--7---5--3----10--2--3----7--5--3----10--14--2--3--------------------------|

Verse
e|---------------------------------------------------------------------------|
B|---------------------------------------------------------------------------|
G|--0--2--4----7--6--4---0--2--4--11--14--2--4--1~--2-1----------------------|
D|--2--------------------2----------------------2~---------------------------|
A|--2--------------------2----------------------2~---------------------------|
E|--0--2--3----7--5--3---0--2--3--10--14--2--3--0~---------------------------|

Chorus
e|--5~-----------------------------------------------------------------------|
B|---5~----------------------------------------------------------------------|
G|---------------------------------------------------------------------------|
D|---------------------------------------------------------------------------|
A|---------------------------------------------------------------------------|
E|---------------------------------------------------------------------------|


I think thats basically it for the main guitar parts.  Pretty simple but fun to play.
(If you are interested the chords for chorus and the bridge are F#m D A E.  Just repeat 
until the end)
Tap to rate this tab
# A B C D E F G H I J K L M N O P Q R S T U V W X Y Z