Song name
# A B C D E F G H I J K L M N O P Q R S T U V W X Y Z

Switchfoot - Stars tab

STARS

Drop-D Tuning

Intro
e|--------------------------------------------------------------------------------|
B|--------------------------------------------------------------------------------|
G|-------6-7-----11------9-----131614-----6-7-----11------9---9-9-9---------------|
D|-0-0-0-x-x-0-0-x-0-0-0-x-0-0-x-x-x--0-0-x-x-0-0-x-0-0-0-x-0-x-x-x---------------|
A|-0-0-0-4-5-0-0-9-0-0-0-7-0-0-111412-0-0-4-5-0-0-9-0-0-0-7-0-7-7-7---------------|
D|-0-0-0-----0-0---0-0-0---0-0--------0-0-----0-0---0-0-0---0---------------------|

e|--------------------------------------------------------------------------------|
B|--------------------------------------------------------------------------------|
G|---6---6-7-----11------9-----131614-----6-7-----11------9---9-9-9---------------|
D|-0-x-0-x-x-0-0-x-0-0-0-x-0-0-x-x-x--0-0-x-x-0-0-x-0-0-0-x-0-x-x-x---------------|3x
A|-0-4-0-4-5-0-0-9-0-0-0-7-0-0-111412-0-0-4-5-0-0-9-0-0-0-7-0-7-7-7---------------|
D|-0---0-----0-0---0-0-0---0-0--------0-0-----0-0---0-0-0---0---------------------|

**Sequence 1
e|--------------------------------------------------------------------------------|
B|--------------------------------------------------------------------------------|
G|--------------------------------------------------------------------------------|
D|-0-2-0-----0-7---0-4-5---0-2------0-2-0-----0-7---0-4-5-------------------------|2x
A|-0-2-0-4/5-0-7-9-0-4-5-7-0-2-4/5--0-2-0-4/5-0-7-9-0-4-5-7--7-7-7----------------|
D|-0-2-0-----0-7---0-4-5---0-2------0-2-0-----0-7---0-4-5-------------------------|

*Verse 1
e|--------------------------------------------------------------------------------|
B|--------------------------------------------------------------------------------|
G|-7------------------------------------7-------------7---------------------------|
D|-7------------------------------------7-------------7---------------------------|
A|-5------------------------------------5-------------5---------------------------|
D|-x------------------------------------5-------------x---------------------------|
    Maybe I've been the problem, maybe I'm the one to blame

e|--------------------------------------------------------------------------------|
B|--------------------------------------------------------------------------------|
G|------------------12--------------7-----------------7-----------------6---------|
D|------------------12--------------7-----------------7-----------------7---------|
A|------------------10--------------5-----------------7-----------------7---------|
D|------------------10--------------5-----------------7-----------------7---------|
    But even when I turn it off and blame myself, the outcome feels the same



e|--------------------------------------------------------------------------------|
B|--------------------------------------------------------------------------------|
G|--------------------------7------------------------------7-----------------7----|
D|--------------------------7------------------------------7-----------------7----|
A|--------------------------5------------------------------5-----------------5----|
D|--------------------------x------------------------------5-----------------x----|
    I've been thinkin maybe I've been partly cloudy, maybe I'm the chance of rain


e|--------------------------------------------------------------------------------|
B|--------------------------------------------------------------------------------|
G|----------------12-----------7-----------------7-----------------6--------------|
D|----------------12-----------7-----------------7-----------------7--------------|
A|----------------10-----------5-----------------7-----------------7--------------|
D|----------------10-----------5-----------------7-----------------7--------------|
    And maybe I'm overcast and maybe all my luck's washed down the drain


e|--------------------------------------------------------------------------------|
B|--------------------------------------------------------------------------------|
G|--------------------------------------------------------------------------------|
D|--------------------------7---------9-----------------11--------12--------------|
A|--------------------------5---------7-----------------9---------10--------------|
D|--------------------------5---------7-----------------9---------10--------------|
    I've been thinkin 'bout ev'ryone, ev'ryone you look so lonely


*Chorus
e|-------------------------x------------------------------------------------------|
B|-------------------------3------------------------------------------------------|
G|-------------------------2---------------------------7--------------------------|
D|-------------------------0---------------------------7--------------------------|
A|-------------------------0---------------------------5--------------------------|
D|-------------------------0---------------------------5--------------------------|
    But when I look at the sta--rs, when I look at the stars

e|--------------------------------------------------------------------------------|
B|--------------------------------------------------------------------------------|
G|--------------------12----7-----------------------------------------------------|
D|--------------------12----7-------------------0-2-0-----0-7---0-4-5-------------|
A|--------------------10----5-------------------0-2-0-4/5-0-7-9-0-4-5-7--7-7-7----|
D|--------------------10----5-------------------0-2-0-----0-7---0-4-5-------------|
    When I look at the sta--rs, I see someone else                 When I look at the



e|--------------------------------------------------------------------------------|
B|--------------------------------------------------------------------------------|
G|--7------------4-----7----------------------------------------------------------|
D|--7------------4-----7-----------------***Play Sequence 1 once------------------|
A|--5------------2-----7----------------------------------------------------------|
D|--5------------2-----7----------------------------------------------------------|

Sta--rs, the sta--rs, I feel like myself

*Verse 2
e|--------------------------------------------------------------------------------|
B|--------------------------------------------------------------------------------|
G|-7--------------------------------------7-----------7---------------------------|
D|-7--------------------------------------7-----------7---------------------------|
A|-5--------------------------------------5-----------5---------------------------|
D|-x--------------------------------------5-----------x---------------------------|
    Stars looking at our planet, watching entropy and pain

e|--------------------------------------------------------------------------------|
B|--------------------------------------------------------------------------------|
G|---------------------12-------------7--------------7-----------------6----------|
D|---------------------12-------------7--------------7-----------------7----------|
A|---------------------10-------------5--------------7-----------------7----------|
D|---------------------10-------------5--------------7-----------------7----------|
    And maybe start to wonder how the chaos in our lives could pass as sane

e|--------------------------------------------------------------------------------|
B|--------------------------------------------------------------------------------|
G|------------------------------7---------------------------7--------------7------|
D|------------------------------7---------------------------7--------------7------|
A|------------------------------5---------------------------5--------------5------|
D|------------------------------x---------------------------5--------------x------|

    I've been thinkin 'bout the meaning of resistance, of a hope beyond my own

e|--------------------------------------------------------------------------------|
B|--------------------------------------------------------------------------------|
G|-------------------12-----------7----------7----------------6-------------------|
D|-------------------12-----------7----------7----------------7-------------------|
A|-------------------10-----------5----------7----------------7-------------------|
D|-------------------10-----------5----------7----------------7-------------------|
    And suddenly the infinite and penitent begin to look like home




e|--------------------------------------------------------------------------------|
B|--------------------------------------------------------------------------------|
G|--------------------------------------------------------------------------------|
D|--------------------------7---------9-----------------11--------12--------------|
A|--------------------------5---------7-----------------9---------10--------------|
D|--------------------------5---------7-----------------9---------10--------------|
    I've been thinkin 'bout ev'ryone, ev'ryone you look so empty

*Chorus
e|-------------------------x------------------------------------------------------|
B|-------------------------3------------------------------------------------------|
G|-------------------------2---------------------------7--------------------------|
D|-------------------------0---------------------------7--------------------------|
A|-------------------------0---------------------------5--------------------------|
D|-------------------------0---------------------------5--------------------------|
    But when I look at the sta--rs, when I look at the stars

e|--------------------------------------------------------------------------------|
B|--------------------------------------------------------------------------------|
G|--------------------12----7-----------------------------------------------------|
D|--------------------12----7-------------------0-2-0-----0-7---0-4-5-------------|
A|--------------------10----5-------------------0-2-0-4/5-0-7-9-0-4-5-7--7-7-7----|
D|--------------------10----5-------------------0-2-0-----0-7---0-4-5-------------|
    When I look at the sta--rs, I see someone else                 When I look at the

e|--------------------------------------------------------------------------------|
B|--------------------------------------------------------------------------------|
G|--7------------4-----7----------------------------------------------------------|
D|--7------------4-----7-----------------------------***Play Sequence 1 once------|
A|--5------------2-----7----------------------------------------------------------|
D|--5------------2-----7----------------------------------------------------------|
    Sta--rs, the sta--rs, I feel like myself... YEAH!!!

e|--------------------------------------------------------------------------------|
B|--------------------------------------------------------------------------------|
G|--7--6--6----------------------------------7--6--6------------------------------|
D|--7--7--x--0-2-0-----0-7---0-4-5-----------7--7--x------------------------------|
A|--5--4--7--0-2-0-4/5-0-7-9-0-4-5-7--7-7-7--5--4--7------------------------------|
D|--5--4--7--0-2-0-----0-7---0-4-5-----------5--4--7------------------------------|
    Sta--rs                                  Sta--rs






e|--------------------------------------------------------------------------------|
B|--------------------------------------------------------------------------------|
G|------------------------------------4-------------------------------------------|
D|-7---------9-----------------7------x---7-------------9-----------------11---12-|
A|-5---------7-----------------4------5---5-------------7-----------------9----10-|
D|-5---------7-----------------4------5---5-------------7-----------------9----10-|
   Ev'ryone, ev'ryone you feel so lonely, ev'ryone yeah ev'ryone you feel so empty

e|--------------------------------------------------------------------------------|
B|--------------------------------------------------------------------------------|
G|--------------------------------------------------------------------------------|
D|--------------------------------------------------------------------------------|
A|--------------------------------------------------------------------------------|
D|--------------------------------------------------------------------------------|
   When I look at the sta--rs, when I look at the stars,

e|--------------------------------------------------------------------------------|
B|--------------------------------------------------------------------------------|
G|--------------------12----7-----------------------------------------------------|
D|--------------------12----7-------------------0-2-0-----0-7---0-4-5-------------|
A|--------------------10----5-------------------0-2-0-4/5-0-7-9-0-4-5-7-7-7-7-----|
D|--------------------10----5-------------------0-2-0-----0-7---0-4-5-------------|
   When I look at the sta--rs, I feel like myself                 When I look at the

e|--------------------------------------------------------------------------------|
B|--------------------------------------------------------------------------------|
G|-7------------4-----7-----------------------------------------------------------|
D|-7------------4-----7-----------------------------------------------------------|
A|-5------------2-----7-----------------------------------------------------------|
D|-5------------2-----7-----------------------------------------------------------|
   Sta--rs, the sta--rs,

e|--------------------------------------------------------------------------------|
B|--------------------------------------------------------------------------------|
G|--------------------------------------------------------------------------------|
D|-------------0-2-0-----0-7---0-4-5---0-2------0-2-0-----0-7---0-4-5-------------|
A|-------------0-2-0-4/5-0-7-9-0-4-5-7-0-2-4/5--0-2-0-4/5-0-7-9-0-4-5-7--7-7-7----|
D|-------------0-2-0-----0-7---0-4-5---0-2------0-2-0-----0-7---0-4-5-------------|
   I see someone                                                              AHHHH!!!
e|--------------------------------------------------------------------x-----------|
B|--------------------------------------------------------------------3-----------|
G|--------------------------------------------------------------------2-----------|
D|-0-2-0-----0-7---0-4-5---0-2------0-2-0-----0-7---0-4-5---0-2-------0-*ring out*|
A|-0-2-0-4/5-0-7-9-0-4-5-7-0-2-4/5--0-2-0-4/5-0-7-9-0-4-5-7-0-2-4/5---0-----------|
D|-0-2-0-----0-7---0-4-5---0-2------0-2-0-----0-7---0-4-5---0-2-------0-----------|
END _______________________________________________________________________________ 


Tap to rate this tab
 
# A B C D E F G H I J K L M N O P Q R S T U V W X Y Z