Song name
# A B C D E F G H I J K L M N O P Q R S T U V W X Y Z

Switchfoot - Your Love Is A Song tab

Artist: Switchfoot
Album: Hello Hurricane
This is from a preview

Verse:

e---------------------------------------------------------|
B--10-----------------7-7-7-7s10-10-10-10s9-9-9-9---------|
G--x----repeatx8------------------------------------------|
D--x------------------------------------------------------|
A--9------------------5-5-5-5s 9--9- 9- 9s7-7-7-7---------|
E---------------------------------------------------------|

Pre-chorus:
e-----------------------------------------|
B-7-7-7-7s10-10-10-10s9-9-9-9-------------|
G-----------------------------------------|
D-----------------------------------------|
A-5-5-5-5s 9--9- 9- 9s7-7-7-7-------------|
E-----------------------------------------|

Chorus:
F#m,D,A,E then at the end of the chorus Bm, D
Tap to rate this tab
 
# A B C D E F G H I J K L M N O P Q R S T U V W X Y Z