Song name
# A B C D E F G H I J K L M N O P Q R S T U V W X Y Z

Switchfoot - Free tab

Switchfoot
Free
Hello Hurricane -- 2009

Tuning - Drop D (D A d G B E)
*Chords are listed at end of song

Chords w/ * are different variations -- reference chord chart.

Intro
Guitar 1
E|--------------|
B|----------0---|
G|--6---7~--4~--|
d|--4~--7~--4~--|[2x]
A|--4~--0~--2~--|
D|--4~--0-------|

Guitar 2
E|------------------|    E|------------------|
B|------------------|    B|------------------|
G|--2---2-------4^--|    G|------------------|
d|---h4--h4-2h4-----| OR d|--7---7-------9^--|[6x]
A|------------------|    A|---h9--h9-7h9-----|
D|------------------|    D|------------------|

Verse 1
F#5                                D5
I've got my back against the wall 
                                    B5
But I still hear the blue sky call 
                                    D5* 
The chains that hold me back inside 
                      E5*
Are the prisons of my mind 

Chorus 
F#5                                D5* 
Free, come set me free, down on my knees 
            A5          E5*           B5
I still believe you can save me from me 
                              D5*
Come set me free, come set me free 
                                       Intro
Inside this shell there's a prison cell     Inside this shell...

Verse 2 - Same as V1
I try to live the light of day
Why would I do what I hate
But when try to reach above
I only I hurt the ones I love

Guitar 2 
  (1:34)    (1:38)    (1:44)   (1:48)  
E|--|---------|---------|--------|---|
B|--|---------|---------|--------|---|
G|--|---------6h7p6\4---4--h7/---9~--|
d|--6h7p6----------------h7----------|
A|-------h5--------------------------|
D|-----------------------------------|

Chorus

Bridge
E5                    B5 
There's a hole in the neighborhood 
D5*              Aadd9
Where he shadows fall
E5                   B5 
There's a hole in my heart but my hope
D5*             Aadd9
Is not in me at all
    E5                    B5          D5*  
    I had a dream that my chains were broken, broken, broken o--pen!
E|-----------------------------------------------------------------|
B|-----------------------------------------------------------------|
G|--9---------------------4----------------------4--------------6--|
d|--9---------------------4-----------4--6----7--x----4--6---7--4--|
A|--7---------------------2-----------5--5----5--5----5--5---5--5--|
D|-----------------------------------------------------------------|
                                       
Guitar 2                               
    I had a dream that my chains were broken, bro-ken, broken o---pen!
                                  E|---------------------------------|
                                  B|--7--9---10--12----7--9--10--14--|
                                  G|--x--x----x---x----x--x---x---x--|
                                  d|--4--6----7---9----4--6---7--11--|
                                  A|---------------------------------|
                                  D|---------------------------------|

Chorus

Outro 
Inside this shell there's a prison cell [2x]

*Chords Used
   F#5  D5  B5  A5  D5*  E5  E5*  Aadd9  
E|---------(0)----------(0)---------0--|
B|---------(0)----------(0)---------0--|
G|--6---7---4---9---7----9---4------6--|
d|--4---7---4---7---7----9---2------7--|
A|--4---0---2---7---5----7---2------0--|
D|--4---0-------7------------2---------|
Tap to rate this tab
 
# A B C D E F G H I J K L M N O P Q R S T U V W X Y Z