Song name
# A B C D E F G H I J K L M N O P Q R S T U V W X Y Z

Switchfoot - Bullet Soul tab

Switchfoot
Bullet Soul
Hello Hurricane

Tuning - Drop D (D A d G B E)
b-bend
r-release
= - hold bend (in this case, hold bend, play note while bent)

Intro: Riff 1 (Drew)
E|--------------------------------------|
B|--------------------------------------|
G|--------------------------------------|
d|--------------------------------------|2x
A|--7-7-7-7-7----------------5-5-5-5-6--|
D|--------------7-6-5-5-5-5-------------|

Riff 2 (Drew and Jon)
E|--------------------------------------|
B|--------------------------------------|
G|--------------------------------------|
d|--9-9-9-9-9---7\6\5-5-5-5--7-7-7-7-8--|1x
A|--7-7-7-7-7---7\6\5-5-5-5--5-5-5-5-6--|
D|--------------7\6\5-5-5-5-------------|

Riff 3 (Drew and Jon)
E|--------------------------------------|
B|--------------------------------------|
G|--------------------------------------|
d|--9-9-9-9/12-9-0-5-5-5-5--7-7-7-7-(8)-|1x
A|--7-7-7-7/10-7-0-5-5-5-5--5-5-5-5-(6)-|
D|---------------0-5-5-5-5--------------|
                                     ^ (chord is not played for intro)
Verse 1  Riff 1
I want to sing one for all the dreamers
I'm singing this one for the sparks
Here's one for the friction makers
We are the bleeding hearts
Don't care whoever you are

Chorus
Guitar 1 & 2  Riff 2
We rise and fall together
Our hearts still beat below
(play riff 4,see bottom of tab for riff 4)You can't stand by forever
         D5                A5
You're a kid with a bullet soul
                  Riff 3  2x (first time, play last charted chord, 2nd time: omit it)
Are you ready to go?
Are you ready to go?

Verse 2
Guitar 1 (Drew) - Same as Intro: Part 1

I wanna turn up the radiation
I wanna glow in the dark
Love is the one true innovation
Love is the only art
Don't let 'em blow it apart

Guitar 2 (Jon)
e|---------------------------------------|
B|---------------------------------------|
G|---------------------------------------|
D|--6-6-6-6-6-7-7-9-9-9-9-7-7-7-7-7------|
A|---------------------------------------|
E|---------------------------------------|

Chorus

Interlude:

Guitar 1 (Drew):
E|-------------------------------------|
B|-------------------------------------|
G|-------------------------------------|
d|--9-9-9-9-9---2-1-0-0-0-0--7-7-7-7-8-| 3x
A|--9-9-9-9-9---2-1-0-0-0-0--7-7-7-7-8-|
D|--9-9-9-9-9---2-1-0-0-0-0--7-7-7-7-8-|


Guitar 2(Jon): Solo
E|--------------------------------------|
B|-15b17-b18-r15-12---------------------|
G|------------------14-14b16--16r14-----|
d|----------------------------------12--|
A|--------------------------------------|
D|--------------------------------------|

E|-----------------------------------------|
B|-----------------------------------------|
G|---12b14-=14=14=14--11-9-----------------|
d|-------------------------12--12-12-11----|
A|--------------------------------------12-|
D|-----------------------------------------|

e|-------------------------------------------------|
B|-------------------------------------------------|
G|-------------------------------------------------|
D|-----12-14b16--14b16r14-12----12-14b16-14--12----|
A|-/-14---------------------14---------------------|
E|-------------------------------------------------|

then: Guitar 1 (Drew):
E|--------------------------------------------------------------|
B|--12-----14-----15-----17-----12-----14-----15-----18---------|
G|--14b16--16b18--17b19--19b21--14b16--16b18--17b19--20b22------|
d|--------------------------------------------------------------|
A|--------------------------------------------------------------|
D|--------------------------------------------------------------|

Guitar 2 (Jon):
e|--------------------------------------------------------------------|
B|--------------------------------------------------------------------|
G|----------6--6-----7--7-----9--9--------------6--6-----7--7-----10--|
D|-9--9-x---5--5-x---5--5-x---7--7-x---9--9-x---5--5-x---5--5-x---8---|
A|-5--5-x---5--5-x---5--5-x---7--7-x---5--5-x---5--5-x---5--5-x---8---|
E|-5--5-x---5--5-x---5--5-x---7--7-x---5--5-x---5--5-x---5--5-x---8---|


Verse 3 
this is a bit complicated, but Guitar 2 (Drew) and the keyboard
player (Romey) are switching off notes. I won't tab the keyboard
player's stuff, but he plays his notes on the count (1 2 3 4) For Guitar
2(Drew), the individual notes are played on the upbeats (the +, or 'and' of the count).

Guitar 2 Riff:

  Measure 1:       Measure 2:        Measure 3:
  1 + 2 + 3 + 4 +  1 + 2 + 3 + 4 +  1 + 2 + 3 + 4 +
E|---------------  ---------------  -----------------|
B|---------------  ---------------  -----------------|
G|---------------  ---------------  -----------------|
d|---------------  ---------------  ----------7-6-5--|
A|--7---7--------  ------5---5---6  --7---7---7-6-5--|
D|----------7---5  --5------------  ----------7-6-5--|

(Lyric: We are the children of the scarred)

Then: Play measures 2 and 3 twice

(Lyric: We got to start from the start, Yeah  Yeah Yeah Yeah)

Then:
E|-------|
B|-------|
G|-------|
D|0------|
A|0------|
E|0------|

Chorus 2:
E|--------------------------------------|
B|--------------------------------------|
G|--------------------------------------|
d|--9-9-9-9-9---7\6\5-5-5-5--0-0-0-7-8--|x2
A|--7-7-7-7-7---7\6\5-5-5-5--0-0-0-5-6--|
D|--------------7\6\5-5-5-5--0-0-0------|

Riff 4:
E|--------------------------------------|
B|--------------------------------------|
G|--------------------------------------|
d|--9-9-9-9-9---7\6\5-5-5-5--7-7-7-7-7--|1x
A|--7-7-7-7-7---7\6\5-5-5-5--5-5-5-5-5--|
D|--------------7\6\5-5-5-5-------------|

         D5                A5
You're a kid with a bullet soul
                  Riff 3 - 4x
Are you ready to go?
Are you ready to go?
Oh, Are you ready to go?
Are  you ready to go?

-----------------------------------------------
Chords (in second half of chorus) used:
   D5  A5
E|----------|
B|----------|
G|----------|
D|-0---7----|
A|-0---7----|
E|-0---7----|
Tap to rate this tab
# A B C D E F G H I J K L M N O P Q R S T U V W X Y Z