Song name
# A B C D E F G H I J K L M N O P Q R S T U V W X Y Z

Switchfoot - Chem 6a chords

This is easier and sounds more accurate than some of the other tabs I have seen up here.
Standard tuning Eadgbe
Intro & Solo:
Intro:
e---------------------------------------------------------------------------|
b----0--------0-------------------------------------------------------------|
g------0--------0--------3-0-------2h4p2p0----------------------------------|
d-------------------------------0-0-----------------------------------------|
a----------22---------33----------------------------------------------------|
E--33-----------------------------------------------------------------------|


e---------------------------------------------------------------------------|
b----0--------0-------------------------------------------------------------|
g------0---------0-------3-0------------------------------------------------|
d------------------------------0--2b----------------------------------------|
a----------22---------33----------------------------------------------------|
E--33-----------------------------------------------------------------------|


solo:

e---------------------------------------------------------------------------|
b-3b------3h5-------0-------------------------------------------------------|
g--------------------------------0---2-----2h3----0---0h2----0--------------|
d---------------------------------------------------------------------------|
a---------------------------------------------------------------------------|
E---------------------------------------------------------------------------|

e-----------------3--------3--5---5h6-----3-----3h5-------3-----------------|
b-3b---3333--5--------------------------------------------------------------|
g---------------------------------------------------------------------------|
d---------------------------------------------------------------------------|
a---------------------------------------------------------------------------|
E---------------------------------------------------------------------------|

e-3--3--3--3--3--3--3--3--3--3--3----3--5---5h6---3----3h5----3-------------|
b---3--3--3--3--3--3--3--3--3--3--3-----------------------------------------|
g---------------------------------------------------------------------------|
d---------------------------------------------------------------------------|
a---------------------------------------------------------------------------|
E---------------------------------------------------------------------------|

Sorry for the spaces in between strings. just ignore those.  This is my first tab so 
tell me how I did
Tap to rate this tab
# A B C D E F G H I J K L M N O P Q R S T U V W X Y Z