Song name
# A B C D E F G H I J K L M N O P Q R S T U V W X Y Z

Switchfoot - Needle And Haystack Life tab

This is the intro to needle and haystack life
It wasnt that hard to find it out
Well here it is....
It starts out with the C chord 2x
*note* play the c chord backwards
Then its this:

e---0---0---0---0---0---0---0---0-|
b-8---8---6---6---5---5---3---3---|
g---------------------------------|
d---------------------------------|
a---------------------------------|
e---------------------------------|

e---0---0---0---0---0---0---0---0-|
b-8---8---6---6---5---5---3---3---|
g---------------------------------|
d---------------------------------|
a---------------------------------|
e---------------------------------|

e---0---0---0---0---0---0---0---0-|
b-8---8---6---6---5---5---3---3---|
g---------------------------------|
d---------------------------------|
a---------------------------------|
e---------------------------------|


e---0---0---0---0---0---0---0---0----|
b-8---8---6---6---5---5---3---3----8-|
g------------------------------------|
d------------------------------------|
a------------------------------------|
e------------------------------------|
Tap to rate this tab
 
# A B C D E F G H I J K L M N O P Q R S T U V W X Y Z