Song name
# A B C D E F G H I J K L M N O P Q R S T U V W X Y Z

Switchfoot - Enough To Let Me Go chords

Highlighted       Show chord diagrams
This is basically Clifton's (thanks) chord chart with the correct(IMO) tuning and 
chord octaves and a minor bridge correction

Tuning and Chords:
Drop C# (Drop D + 1/2 step down)
Chords named based on Drop D to get rid of ugly flats and sharps

Verses:
    G5  B5   E5  D5  C5
Eb|--x---x---x---x---x---|
Bb|--x---x---x---x---x---|
Gb|--x---4---x---x---5---|
Db|--5---4---2---0---5---|
Ab|--5---2---2---0---3---|
Db|--5---x---2---0---x---|

Chorus:
    C5  D5   E5  
Eb|--x---x---x---|
Bb|--x---x---x---|
Gb|--5---7---9---|
Db|--5---7---9---|
Ab|--3---5---7---|
Db|--x---x---x---|

Bridge:
    E5  D5   A5  C5 or C5
Eb|--x---x---x---x-----x-|
Bb|--x---x---x---x-----x-|
Gb|--x---x---x---x--or-5-|
Db|--2---0---7---10-or-5-|
Ab|--2---0---7---10-or-3-|
Db|--2---0---7---10-or-x-|

End of Bridge (Marked by !(--) ):
    E5  F#5  G5  D5
Eb|--x---x---x---x--|
Bb|--x---x---x---15-|
Gb|--9--11--12---14-|
Db|--9--11--12---12-|
Ab|--7---9--10----x-|
Db|--x---x---x----x-|

Main Riff:
Eb|---------------------|    |-------|
Bb|---------------------|    |-------|
Gb|---------------------|    |-------|
Db|-------12-9----------|    |--9----|
Ab|--7-10------12-10----|    |----12-|
Db|-----------------10~-| x2 |-------|

Intro
G5 C5
G5 C5 (E5-D5)


==Verse 1==
G5                 B5
Oh,   I'm a wandering soul
           E5        D5                 C5 
I'm still walking the line that leads me home
G5           B5
alone, all I know
            E5          D5        C5
I still got mountain to climb on my own
      G5   C5    G5   C5  (E5-D5)
on my own 

==Chorus 1==
C5             D5              E5     D5  
Do you love me enough to let me go?
C5             D5              E5     D5  
Do you love me enough to let me go?
           C5        D5            C5      D5
to let me follow through, to let me fall for you
C5              D5             G5    C5 G5  C5 (E5-D5)
Do you love me enough to let me go? 

==Verse 2==
G5 
Back from the dead of winter 
B5                                       E5
back from the dead and all our leaves are dry
          D5          C5 
you're so beautiful, tonight 

G5
back from the dead we went through 
B5                                          E5      
back from the dead and both our tongues are tied
           D5         C5 
you look beautiful tonight 

          E5        D5        C5
but every seed dies before it grows 

==Chorus 2==
C5             D5              E5     D5  
Do you love me enough to let me go?
C5             D5              E5     D5  
Do you love me enough to let me go?
           C5        D5            C5      D5
to let me follow through, to let me fall for you
C5              D5             G5    C5 G5  C5 (E5-D5)
Do you love me enough to let me go? 


==Bridge==
E5        D5
breathe it in
A5        Bb5
and let it go 
E5               D5                 A5
every breath you take is not yours to own 
     Bb5             !(E5  F#5  G5  D5)
it's not yours to hold 
C5              D5             G5  C5  G5   C5 (E5-D5)
Do you love me enough to let me go? 


==Chorus 3==
C5             D5              E5     D5  
Do you love me enough to let me go?
C5             D5              E5     D5  
Do you love me enough to let me go?
           C5        D5            C5      D5
to let me follow through, to let me fall for you
C5              D5             G5    C5 G5  C5 (E5-D5)
Do you love me enough to let me go? 
Tap to rate this tab
# A B C D E F G H I J K L M N O P Q R S T U V W X Y Z