Song name
# A B C D E F G H I J K L M N O P Q R S T U V W X Y Z

Switchfoot - Your Love Is A Song tab

Switchfoot - Your Love is a Song
Hello Hurricane - 2009
Standard

I don't know if this is how they play it, but it sounds right to me.
This is also my first tab, so feel free to give me some pointers.
Enjoy!

Intro
 e|-----------------------------------------------------|
 B|-----------------------------------------------------|
 G|-----------------7-7-7-7-7-7-7-7---------------------|
 D|-4-4-4-4-4-4-4-4-7-7-7-7-7-7-7-7-7-7-7-7-7-7-7-7--6--|
 A|-4-4-4-4-4-4-4-4-5-5-5-5-5-5-5-5-7-7-7-7-7-7-7-7--7--|
 E|-2-2-2-2-2-2-2-2-----------------5-5-5-5-5-5-5-5--7--|


Verse

I hear you breathing in
another day begins
 e|-5-5-5-5-5-5-5-5-|
 B|-5-5-5-5-5-5-5-5-|
 G|-6-6-6-6-6-6-6-6-|   x2
 D|-----------------|
 A|-----------------|
 E|-----------------|

 e|-2-2-2/5-5-5-4-4-4-4-4-4-4-4|
 B|-3-3-3/5-5-5-4-4-4-4-4-4-4-4|
 G|-2-2-2/6-6-6-5-5-5-5-5-5-5-5|
 D|----------------------------|
 A|----------------------------|
 E|----------------------------|

the stars are falling out
my dreams are fading now, fading out
 e|-5-5-5-5-5-5-5-5-|
 B|-5-5-5-5-5-5-5-5-|
 G|-6-6-6-6-6-6-6-6-|   x2
 D|-----------------|
 A|-----------------|
 E|-----------------|

Pre-Chorus

I've been keeping my eyes wide open
I've been keeping my eyes wide open
 e|-2-2-2/5-5-5-4-4-4-4-4-4-4-4|
 B|-3-3-3/5-5-5-4-4-4-4-4-4-4-4|
 G|-2-2-2/6-6-6-5-5-5-5-5-5-5-5|
 D|----------------------------|
 A|----------------------------|
 E|----------------------------|

Chorus

your love is a symphony
all around me
running through me
your love is a melody
underneath me
running to me
 e|----------------------------------------------------------------|
 B|----------------------------------------------------------------|
 G|-----------------7-7-7-7-7-7-7-7--------------------------------|  x2
 D|-4-4-4-4-4-4-4-4-7-7-7-7-7-7-7-7-7-7-7-7-7-7-7-7-6-6-6-6-6-6-6-6|
 A|-4-4-4-4-4-4-4-4-5-5-5-5-5-5-5-5-7-7-7-7-7-7-7-7-7-7-7-7-7-7-7-7|
 E|-2-2-2-2-2-2-2-2-----------------5-5-5-5-5-5-5-5-7-7-7-7-7-7-7-7|

your love is a song
 e|-----------------------------------|
 B|-----------------------------------|
 G|-4-4-4-4-7-7--7-\------------------|
 D|-4-4-4-4-7-7--7-|-hold==========---|
 A|-2-2-2-2-5-5--5-/------------------|
 E|-----------------------------------|

It's pretty much the same from here. The bridges are played like the pre-chorus and the 
except looped a little bit.
Tap to rate this tab
# A B C D E F G H I J K L M N O P Q R S T U V W X Y Z