Song name
# A B C D E F G H I J K L M N O P Q R S T U V W X Y Z

Switchfoot - Sooner Or Later tab

  Intro(i think he uses a little chorus)
e|--------------------------|
B|-----5--------------------|
G|-----6-------3-----4----4-| 
D|---6---------4---2------2-|  (2x)
A|-4---------4---0------2---| 
E|-------4-2----------0-----|
  Verse 1          
e|--------------------------------------------------|
B|-----5----------------------4---------------------|
G|-----6-------3-----4--4-----6-------2-----4-----4-|
D|---6---------4---2----2---6---------4---2-------2-|  (2x)
A|-4---------4---0----2---4---------4---0-------2---|
E|-------4-2--------0-----------4-2-----------0-----|
  Chorus
e|----------------------------------------------|
B|----------------------------------------------|
G|-----4---4-----4---4-----4-----4------7-----6-|
D|---6---6-----6---6-----4-----2------7-----2---| (2x)
A|-4---------4---------2-----0-----/5-----0-----|
E|----------------------------------------------|
  Verse 2(keys with delay and some other effect)
  Chorus
  Bridge(keys again)
  Bridge pt.2 (Distortion)
e|---------------------------|
B|---------------------------|
G|---------------------------|
D|-8/10-10/12-12/13-13/15-15~|
A|-6/-8--8/10-10/11-11/13-13~|
E|---------------------------|
                                                  (4x)
e|-----------------------------------------------|-------------------|
B|-----------------------------------------------|-------------------|
G|-6666\5555\44444444----------------------------|-------------------|
D|-6666\5555\44444444-4444444/9999\8888\77777777-|-222222/9-77777777-|
A|-4444\3333\22222222-4444444/9999\8888\77777777-|-222222/9-77777777-|
E|--------------------2222222/7777\6666\55555555-|-000000/7-55555555-|
  Verse(1x)
  Chorus(till fade out)

       That's it. God Bless :)
Tap to rate this tab
 
# A B C D E F G H I J K L M N O P Q R S T U V W X Y Z