Song name
# A B C D E F G H I J K L M N O P Q R S T U V W X Y Z

Switchfoot - Needle And Haystack Life tab

	               NEEDLE AND HAYSTACK LIFE - Switchfoot

Tabbed by: Dan!

Tuning: CADGCE

This is just to show you how Drew did all those cool tricks at the beginning of the song!

Use lots of reverb with some delay and overdrive. Let everything ring out a lot so 
it gets that atmospheric kind of sound.
e|--0-------------------------------------0----------------------------------|
C|--0-------------------------------------0----------------------------------|
G|--0-----------0-------------------------0----------------------------------|
D|--2---------------------3---------------2----------------------------------|
A|--3-------------------------------------3----------------------------------|
C|--0-------------------------------------0----------------------------------|
Arrpegiate that huge chord from the high e-string all the way down to your now low-C string

e|--0--0--0--0--0--0--0--0--0--0--0--0--0--0--0--0---------------------------|
C|--0--0--0--0--0--0--0--0--0--0--0--0--0--0--0--0---------------------------|
G|--12-0--12-0--10-0--10-0--9--0--9--0--7--0--7--0---------------------------|
D|---------------------------------------------------------------------------|
A|---------------------------------------------------------------------------|
C|---------------------------------------------------------------------------|
"In this needle and haystack life"

Enjoy!
Tap to rate this tab
# A B C D E F G H I J K L M N O P Q R S T U V W X Y Z