Song name
# A B C D E F G H I J K L M N O P Q R S T U V W X Y Z

Switchfoot - Thrive Acoustic tab

Jon Foreman Playing Thrive
http://www.youtube.com/watch?v=Z9wdYxx04fM

INTRO
E|-------------------------------|
B|-------------------------------|
G|-------------------------------|
D|-------------------------------|
A|-5-5-7-7---7---7-7-7-7/9---7-5-|
D|-0-0-0-0---0---0-0-0-0-----0-0-|X2

VERSE
E|-------------------------------|
B|-------------------------------|
G|-------------------------------|
D|-------------------------------|
A|-5-5-7-7---7---7-7-7-7/9---7-5-|
D|-0-0-0-0---0---0-0-0-0-----0-0-|X2

E|-----------------------------|
B|-----------------------------|
G|-----------------------------|
D|-----------------------------|
A|-5-5-7-7---7---7-7-7-9---7-5-|
D|-5-5-5-5---5---5-5-5-5---5-5-|X2

PRE-CHORUS
E|---------------------------------------------------------------------------------|
B|---------------------------------------------------------------------------------|
G|---------------------------------------------------------------------------------|
D|-12-12-12-12-12-12-12-12-12-12-12-12-12-12-12-12-9-9-9-9-9-9-9-9-9-9-9-9-9-9-9-9-|
A|-9--9--9--9--9--9--9--9--9--9--9--9--9--9--9--9--5-5-5-5-5-5-5-5-5-5-5-5-5-5-5-5-|
D|-9--9--9--9--9--9--9--9--9--9--9--9--9--9--9--9--5-5-5-5-5-5-5-5-5-5-5-5-5-5-5-5-|X2

CHORUS
E|---------------------------------------------------------------------------------|\
B|---------------------------------------------------------------------------------| \
G|---------------------------------------------------------------------------------|  \
D|-4-4-4-4-4-4-4-4-4-4-4-4-4-4-4-4-11-11-11-11-11-11-11-11-11-11-11-11-11-11-11-11-|   \
A|-5-5-5-5-5-5-5-5-5-5-5-5-5-5-5-5-7--7--7--7--7--7--7--7--7--7--7--7--7--7--7--7--|    \
D|-0-0-0-0-0-0-0-0-0-0-0-0-0-0-0-0-7--7--7--7--7--7--7--7--7--7--7--7--7--7--7--7--|     \
                                                                                          X2
E|---------------------------------------------------------------------------------|     /
B|---------------------------------------------------------------------------------|    /
G|---------------------------------------------------------------------------------|   /
D|-12-12-12-12-12-12-12-12-12-12-12-12-12-12-12-12-9-9-9-9-9-9-9-9-9-9-9-9-9-9-9-9-|  /
A|-9--9--9--9--9--9--9--9--9--9--9--9--9--9--9--9--5-5-5-5-5-5-5-5-5-5-5-5-5-5-5-5-| /
D|-9--9--9--9--9--9--9--9--9--9--9--9--9--9--9--9--5-5-5-5-5-5-5-5-5-5-5-5-5-5-5-5-|/

BRIDGE
E|---------------------------------0-0-0-0-0-0-0-0-0-0-0-0-0-0-0-0-|
B|---------------------------------0-0-0-0-0-0-0-0-0-0-0-0-0-0-0-0-|
G|-----------------4---4---4---4---2-2-2-2-2-2-2-2-2-2-2-2-2-2-2-2-|
D|-5---5---5---5---4---4---4---4---2-2-2-2-2-2-2-2-2-2-2-2-2-2-2-2-|
A|-2---2---2---2---2---2---2---2---0-0-0-0-0-0-0-0-0-0-0-0-0-0-0-0-|
D|-2---2---2---2---------------------------------------------------|X3

END
E|---|
B|-3-|
G|-2-|
D|-0-|
A|-0-|
D|-0-|

Song Order:

INTRO
VERSE
PRE-CHORUS
CHORUS
VERSE
PRE-CHORUS
CHORUS
BRIDGE
VERSE
PRE-CHORUS
CHORUS
END

ENJOY!
Tap to rate this tab
 
# A B C D E F G H I J K L M N O P Q R S T U V W X Y Z