Song name
# A B C D E F G H I J K L M N O P Q R S T U V W X Y Z

Switchfoot - We Are One Tonight tab

Standard Tuning

Chords:
G     (210034)
Dsus4 (xx0134)
Em7   (012034)
Cadd9 (x21034)
         
Intro:

(Play this once then the chords twice)
e|3---3---3------3---3---3-------3-|
B|--3---1--0-------3---1---0-------|
G|-----------2-0-------------2-0---|
D|---------------------------------|
A|---------------------------------|
E|---------------------------------|

(G) (Dsus4) (Em7) (Cadd9)



Verse:

e|-----------------------------------------------------|
B|-3--3--3--3--3--3--3--3-3--3--3--3--3--3--3--3-3-3-3-|
G|-0--0--0--0--0--0--0--0-0--0--0--0--0--0--0--0-0-0-0-|
D|-2--2--2--2--2--2--2--2-0--x--x--x--x--x--x--x-0-x-0-|
A|------------------------0--3--3--3--3--3--3--3-0-3-0-|
E|-----------------------------------------------------|x4



Pre-Chorus:

(Palm muted)
e|-------------------------------------------------------------------|
B|-------------------------------------------------------------------|
G|-------------------------------------------------------------------|
D|-4-4-4-4-4-4-4-4/-5-5-5-5-5-5-5-5\-2-2-2-2-2-2-2-2-2-2-2-2-2-2-2-2-|
A|-5-5-5-5-5-5-5-5/-7-7-7-7-7-7-7-7\-3-3-3-3-3-3-3-3-3-3-3-3-3-3-3-3-|
E|-------------------------------------------------------------------|x2



Chorus:

(G) (Dsus4) (Em7) (Cadd9)



Verse 2:
(Same as Verse 1)



Pre-Chorus:

e|-2---2-3---3-0---0-0---2---2-3---3-0---0---0---|
B|---3-----3---------------3-----3---------------|
G|---------------0-----0---------------0---0---0-|
D|-----------------------------------------------|
A|-----------------------------------------------|
E|-----------------------------------------------|



Chorus:

(G) (Dsus4) (Em7) (Cadd9)



Pre-Chorus:

e|-2---2-3---3-0---0-0-------------------------------------|
B|---3-----3-----------------------------------------------|
G|---------------0-----0-----------------------------------|
D|-------------------------5\4-4-4-4-4-4-4-4/5-5-5-5-5-5-5-|
A|---------------------------------------------------------|
E|---------------------------------------------------------|

e|-----------------------------------|
B|-----------------------------------|
G|-----------------------------------|
D|-5-5-5-5-5-5-5-5-5-5-5-5-5-5-5-5/9-|
A|-----------------------------------|
E|-----------------------------------|



Bridge:

e|-------3---3---3---3---3---3---3-------3---3---3-|---3---3---3---3-|
B|-------3---3---3---3---3---3---3-------3---3---3-|---3---3---3---3-|
G|-0-0-0-0-0-0-0-2-2-2-2-2-2-2---0-0-0-0-0-0-0-0-0-|-0-0-0-0-0-0-0-0-|
D|-0-0-0---0---0---0---0---0---2---2-2-2---2---2-2-|-2---2---2---2---|
A|-2-2-2---2---2---------------2---2-2-2---2---2-3-|-3---3---3---3---|
E|-3-3-3---3---3---------------0---0-0-0---0---0---|-----------------|



Outro-Chorus:

(Repeat chords till song fades):
(G) (Dsus4) (Em7) (Cadd9)



Enjoy and please rate!!!
Tap to rate this tab
 
# A B C D E F G H I J K L M N O P Q R S T U V W X Y Z