Switchfoot - Meant To Live Acoustic chords

Highlighted       Show chord diagrams
The intro is in Drop D, but the rest is in standard.
        123456
Am+ : e|--x---
      B|x-----
      G|-x----
      D|-x----
      A|------
      E|------

Intro:
E|--------------------------------------------------------|
B|--------------------------------------------------------|
G|--------4h5p4----------4b----------4b-------------------|
D|--------4h5p4----------4b----------4b---5-5-5-5-7-7-----|
A|---2-2-2-------0-0-0-------2-2-2--------5-5-5-5-7-7-----|
D|---------------------------2-2-2--------5-5-5-5-7-7-----|

E|--------------------------------------------------------|
B|--------------------------------------------------------|
G|------4h5p4--------4h5p4-------4h5p4--------------------|
D|--------------------------------------0-2-0-0-0-2-7-7---|
A|-2-2-2--------0-0-0-------2-2-2-------0-2-0-0-0-2-7-7---|
D|--------------------------2-2-2-------0-2-0-0-0-2-7-7---|

Capo 2
Verse:
F(hold)
Fumbling his confidence
                                           C
And wondering why the world has passed him by
F(hold)
Hoping that he’s meant for more than arguments
                       C
And failed attempts to fly, fly

Chorus:
F                G                Am
We were meant to live for so much more
        (Am+) 
Have we lost ourselves?
F                 Am
Somewhere we live inside
F                 C
Somewhere we live inside
F                G                Am
We were meant to live for so much more
        (Am+)
Have we lost ourselves?
F                 C
Somewhere we live inside

F(hold)
Dreaming about providence
                                    C
And whether mice or men have second tries
F(hold)
Maybe we’ve been livin with our eyes half open
                     C
Maybe we’re bent and broken, broken

F                G                Am
We were meant to live for so much more
        (Am+)
Have we lost ourselves?
F                 Am
Somewhere we live inside
F                 C
Somewhere we live inside
F                G                Am
We were meant to live for so much more
        (Am+)
Have we lost ourselves?
F                 C
Somewhere we live inside

        C                      F
We want more than this world’s got to offer
        C                      F
We want more than this world’s got to offer
        C             Dm
We want more than the wars of our fathers
       Bb               F
And everything inside screams for second life

C
We were meant to live for so much more
C
Have we lost ourselves?
C
We were meant to live for so much more
C
Have we lost ourselves?
C
We were meant to live for so much more
C
Have we lost ourselves?
C
We were meant to live
C
We were meant to live
Tap to rate this tab
 
# A B C D E F G H I J K L M N O P Q R S T U V W X Y Z