Song name
# A B C D E F G H I J K L M N O P Q R S T U V W X Y Z

Switchfoot - Hello Hurricane tab

so here's my tab of how I play Hello Hurricane by switchfoot.
it's my first ever so take easy please;)

intro part 1.
e|--x----------------|
B|--8----------------|
G|--0----------------|
D|--x----------------|
A|--10---------------|
E|--x----------------| (I ain't gonna give the strum pattern, figure it out yourself, it's easy)

intro part 2.
e|-----------------------------------------------------------|
B|--12.12.12.12.12.12.13.13.13.13.13.13.12.12.12.12.12.12----|
G|-----------------------------------------------------------|
D|-----------------------------------------------------------|
A|-----------------------------------------------------------|
E|-----------------------------------------------------------|

e|-----------------------------------------------------------|
B|--12.12.12.12.12.10.10.10.10.10.8.8.8.8.8.8----------------|
G|-----------------------------------------------------------|
D|-----------------------------------------------------------|
A|-----------------------------------------------------------|
E|-----------------------------------------------------------|

e|-------------------------------------15.15.15.15.15.13.13.13.12.12.12--|
B|--12.12.12.12.14.14.14.14.15.15.15.15--------------------------------15|
G|-----------------------------------------------------------------------|
D|-----------------------------------------------------------------------|
A|-----------------------------------------------------------------------|
E|-----------------------------------------------------------------------|

e|---------------------------------------------------|
B|--15.15.15.15.15.15.15.13.13.13.13.12.12.12.12.12--|
G|---------------------------------------------------|
D|---------------------------------------------------|
A|---------------------------------------------------|
E|---------------------------------------------------|

verse.
e|----------------------------------|                          e|----------|
B|----------------------------------|                          B|----------|
G|----------------------------------| )3x after 3rd time play: G|----------|
D|----------------------------------|                          D|----------|
A|------------3--3--3--3------------|                          A|22-33-5577|
E|--0--0--0--0----------3--3--3--3--|                          E|----------|

Chorus
e|------------------------------------------------------------|
B|------------------------------------------------------------|
G|------------------------------------------------------------|
D|--5-------------------10-----------2----------5--------10---|
A|--5-------------------10-----------2----------5--------10---|
E|--3-------------------8------------0----------3---------8---|
   'Hello...'  '...Hurricane'  '...enough'    'Hello Hurricane'

e|-----------------------------------------------------------------|
B|-----------------------------------------------------------------|
G|-----------------------------------------------------------------|
D|---------------12--------------------10------------5------12-----|
A|---------------12--------------------10------------5------12-----|
E|---------------10---------------------8------------3------10-----|
   'You can't silence my love'     '...doors and windows boarded up.'

e|--------------------------------------------------------------------|
B|--------------------------------------------------------------------|
G|--------------------------------------------------------------------|
D|--12------------10-------5-----------12--------------10-----------5-|
A|--12------------10-------5-----------12--------------10-----------5-|
E|--10-------------8-------3-----------10---------------8-----------3-|
    'and all your dead and fury is not enough, you cant silence my love.'
during this next part play:

e|--7-----7----|
B|----10----8--|
G|-------------|
D|-------------| play this several times, don't exactly know how
A|-------------| many times, it will turn out automatic.
E|-------------|

verse again.
chorus again.

Bridge

e|-----------------------------------------|
B|-----------------------------------------|
G|-----------------------------------------|
D|--5------------14----------10------------|
A|--5------------14----------10------------|
E|--3------------12-----------8------------|
'...fighting...fighting...for control'

same for: iwas fighting, fighting for my soul.

e|--------------------------------------------------|
B|--------------------------------------------------|
G|--------------------------------------------------|
D|---2------------------------10--------------------|
A|---2-----------5------------10--------------------|
E|---0-----------2-------------8--------------------|
  'Everything inside of me surrenders, you can silence my love' 

from 'silence' play intro part 1 en then chorus again
end on 

e|--3--|
B|--3--|
G|--4--|
D|--5--|
A|--5--|
E|--3--|

have fun with his song, it's fun to play en correct me if i'm wrong
god bless
Tap to rate this tab
 
# A B C D E F G H I J K L M N O P Q R S T U V W X Y Z