Switchfoot - Daylight To Break tab

Tuning: Drop D (DAdGBE)

| /  up-slide
| .  palm-mute

Extra catchy Switchfoot song that no one knows about! They have it posted on their fan
for free, as it is not released on iTunes for sale. (It was originally free from their
to build suspense for Oh! Gravity.) You can get it for free off of their fan site at the 
"http://www.landofbrokenhearts.org/mediasongs.php" :o

[Intro]
E|---------------------------------------------------------------|
B|---------------------------------------------------------------|
G|---------------------------------------------------------------|
d|------7-----------------------------7--------------------------|
A|--7/9---9--9-0-0-7--7--5--5-5-7-7/9---9--9-0-0-7--7--5--5-5-7--|
D|--7/9---9--9-0-0-5--5--5--5-5-5-7/9---9--9-0-0-5--5--5--5-5-5--|
    ...........................................................

[Verses]
    /-Rhythm not posted-\
E|---------------------------------------------------------|
B|---------------------------------------------------------|
G|---------------------------------------------------------| x2
d|--9---5---0---5---9---5-------7--------------------------|
A|--9---7---0---7---9---7---7/9---9--9-0-0-7--7--5--5-5-7--|
D|--9---5---0---5---9---5---7/9---9--9-0-0-5--5--5--5-5-5--|
    .....................................................

[Chorus 1] *Note: It may be difficult to do some of these chords because your fingers
get crammed for space on the fret board. So, if you need to you, can omit the notes on the
string. However, if possible it's best if you can play them, because it definitely 
matches the mood of the song.


Waiting for daylight to break up this room, waiting for daylight to break
E|--------------------------------------------|
B|--------------------------------------------|
G|----8----1----4---------8----1----4----6----|
d|----9----2----5----0----9----2----5----7----|
A|----9----2----5----0----9----2----5----7----|
D|----9----2----5----0----9----2----5----7----|

I've been alone in the dark I've been dreaming and
E|------------------------|
B|------------------------|
G|----8----1----3----1----|
d|----9----2----4----2----|
A|----9----2----4----2----|
D|----9----2----4----2----|

Waking up without you, I've been waking up without you for too long
E|------------------------|
B|------------------------|
G|----4----6----4----7----|
d|----5----7----5----8----|
A|----5----7----5----8----|
D|----5----7----5----8----|


[Post-Chorus]
E|-----------------------------------------------------------|
B|-----------------------------------------------------------|
G|-----------------------------------------------------------|
d|----7---------------------------7--------------------------|
A|--9---9--9-0-0-7--7--5--5-5-7-9---9--9-0-0-7--7--5--5-5-7--|
D|--9---9--9-0-0-5--5--5--5-5-5-9---9--9-0-0-5--5--5--5-5-5--|


[Chorus 2/Bridge]
Waiting for daylight to break up this room, waiting for daylight to break
E|--------------------------------------------|
B|--------------------------------------------|
G|----8----1----4---------8----1----4----6----|
d|----9----2----5----0----9----2----5----7----|
A|----9----2----5----0----9----2----5----7----|
D|----9----2----5----0----9----2----5----7----|

I've been alone in the dark I've been dreaming
E|------------------------|
B|------------------------|
G|----8----1----3----1----|
d|----9----2----4----2----|
A|----9----2----4----2----|
D|----9----2----4----2----|

The day, when dreamers are awake
E|------------------------|
B|------------------------|
G|----4----6----4----6----|
d|----5----7----5----7----|
A|----5----7----5----7----|
D|----5----7----5----7----|

The sun hits my eyes and everything is right
E|------------------------|
B|------------------------|
G|---------4----6----8----|
d|----0----5----7----9----|
A|----0----5----7----9----|
D|----0----5----7----9----|

I've been waking up without you, I've been waking up without you, I've been
E|------------------------|
B|------------------------|
G|----4----6----4----7----|
d|----5----7----5----8----|
A|----5----7----5----8----|
D|----5----7----5----8----|

Warring alarms, till you are in my arms, I've been
E|------------------------|
B|------------------------|
G|---------4----6----8----|
d|----0----5----7----9----|
A|----0----5----7----9----|
D|----0----5----7----9----|

Waking up without you, I've been waking up without you for too long
E|------------------------|
B|------------------------|
G|----4----6----4----7----|
d|----5----7----5----8----|
A|----5----7----5----8----|
D|----5----7----5----8----|

E|-----------------------------------------------------------|
B|-----------------------------------------------------------|
G|-----------------------------------------------------------| x2
d|----7---------------------------7--------------------------|
A|--9---9--9-0-0-7--7--5--5-5-7-9---9--9-0-0-7--7--5--5-5-7--|
D|--9---9--9-0-0-5--5--5--5-5-5-9---9--9-0-0-5--5--5--5-5-5--|

Repeat the [Chorus 2/Bridge] part for the [Chorus 3/Outro] part ;) Extra catchy; hope
a blessing.
Tap to rate this tab
 
# A B C D E F G H I J K L M N O P Q R S T U V W X Y Z