Switchfoot - Stitches tab

Stitches
Switchfoot 
From ďHello HurricaneĒ

CAPO 1

INTRO
E|----------0---------------0---------------2---------------0-------|
B|------3-----3---3-----3-----3---3-----3-----3---3-----3-----3---3-|
G|----2---2-----2-----2---2-----2-----2---2-----2-----2---2-----2---|
D|--0---------------2---------------3---------------2---------------|
A|------------------------------------------------------------------|
E|------------------------------------------------------------------|


VERSE
E|----------0---------------0---------------2-----------------|
B|------3-----3---3-----3-----3---3-----3-----3---2-----3---3-|
G|----2---2-----2-----2---2-----2-----2---2-----2-----2---2---|
D|--0---------------2---------------3---------------2---------|
A|------------------------------------------------------------|
E|------------------------------------------------------------|
        Iím not the only who        sees them


E|----------0---------------0---------------2-----------------|
B|------3-----3---3-----3-----3---3-----3-----3---2-----3---3-|
G|----2---2-----2-----2---2-----2-----2---2-----2-----2---2---|
D|--0---------------2---------------3---------------2---------|
A|------------------------------------------------------------|
E|------------------------------------------------------------|
        Iím not the only one they   keep up at      night


E|----------0---------------0---------------2-----------------|
B|------3-----3---3-----3-----3---3-----3-----3---2-----3---3-|
G|----2---2-----2-----2---2-----2-----2---2-----2-----2---2---|
D|--0---------------2---------------3---------------2---------|
A|------------------------------------------------------------|
E|------------------------------------------------------------|
        Iím not the only one not    sleeping


E|----------0---------------0-------|
B|------3-----3---3-----3-----3---3-|
G|----2---2-----2-----2---2-----2---|
D|--0---------------2---------------|
A|----------------------------------|
E|----------------------------------| Bbmaj7   Am
        Iím not the only one whoís    dreaming out loud


Bbmaj7   Am
Dreaming out


CHORUS
   D                            Bbmaj7      C      D
In stitches here tonight we are ripping the seams out
                            Bbmaj7 C
Iím pushing hard to tear it loó----ose
   D                            Bbmaj7      C
In stitches here tonight we are ripping the seams
        E7                 Bbmaj7          C    (1st to INTRO/2nd to OUTRO)
Thereís something missing, children of the in between


OUTRO
E|----------0---------------0---------------2---------------0-------|
B|------3-----3---3-----3-----3---3-----3-----3---3-----3-----3---3-|
G|----2---2-----2-----2---2-----2-----2---2-----2-----2---2-----2---|
D|--0---------------2---------------3---------------2---------------|
A|------------------------------------------------------------------|
E|------------------------------------------------------------------|
                                                    In


E|----------0---------------0---------------2---------------0-------|
B|------3-----3---3-----3-----3---3-----3-----3---3-----3-----3---3-|
G|----2---2-----2-----2---2-----2-----2---2-----2-----2---2-----2---|
D|--0---------------2---------------3---------------2---------------|
A|------------------------------------------------------------------|
E|------------------------------------------------------------------|
  Between


E|--0h2--------|
B|--3----------|
G|--2----------|
D|--0----------|
A|-------------|
E|-------------|
Tap to rate this tab
 
# A B C D E F G H I J K L M N O P Q R S T U V W X Y Z