Song name
# A B C D E F G H I J K L M N O P Q R S T U V W X Y Z

Switchfoot - The Sound tab

hi guys have fun playing this song bij switchfoot. this includes all te guitar 
parts. second ever tab, all by ear. correct me if im wrong

intro+verses.
e|-----------------------------------|
B|-----------------------------------|
G|-----------------------------------|
D|-----------------------------------|
A|-----------------------------------|
D|--0-0-00-0-12-0-0-00-0-0-00-10-----|

Pre chorus.
e|---------------------------------|
B|---------------------------------|
G|---------------------------------|
D|--8---------3---------8----------|
A|--8---------3---------8----------|
D|--8---------3---------8----------|

chorus.
e|--------------------------------|
B|--------------------------------|
G|--------------------------------|
D|---0--------0----------8----5---| 2x
A|---0--------0----------8----5---|
D|---0--------0----------8----5---|

after 2nd time play again that open powerchord and go into verses again.

solo.
e|--------------------------------15b^-----|
B|---13b15r13-----------------15b^---------|
G|-----------10---12b-rp10-----------------|
D|-------------------------12--------------|
A|-----------------------------------------|
D|-------------10b-------------------------|

ten chorus agan, and for the end play intro again.
enjoy
Tap to rate this tab
 
# A B C D E F G H I J K L M N O P Q R S T U V W X Y Z