Song name
# A B C D E F G H I J K L M N O P Q R S T U V W X Y Z

Switchfoot - On Fire tab

Intro/Verse 
|-----------------------------------------|
|------------------------------0h1--------|
|-----0(Let ring)---0h2-------2---------0-|
|----0------------0---------2----------3--|
|---2---------------------0-----------3---|
|--3-------------3-------------------1----|

Pre-Chorus/Chorus
 Cadd9 G  Am  F5
|--3---3---0----|
|--3---3---1----|
|--0---0---2----|
|--2---0---2--3-|
|--3---2---0--3-|
|--0---3------1-|

|--------------0-3/5-3-0-1|
|----------0-1------------|
|---------2---------------|
|--------2----------------|2x
|--0-2-3------------------|
|-------------------------|
Tap to rate this tab
 
# A B C D E F G H I J K L M N O P Q R S T U V W X Y Z