Song name
# A B C D E F G H I J K L M N O P Q R S T U V W X Y Z

Switchfoot - Needle And Haystack Life tab

-------------------------------------
Needle and Haystack Life - Switchfoot
-------------------------------------
Album: Hello Hurricane (2009)

Tuning: ebgdaE

All tabbing is done by youtube.com/akintomeatloaf, so all credit goes to him and his 
tutorial videos.  He also has a cover of this song that's available to watch.  Look his 
videos up!

Intro/Main Riff:
|------------------------------------------------------------------|
|----8-----8-6-----6-5-----5-3---3-5-------------------------------|
|------5-0-----5-0-----5-0-----5-----------------------------------|
|------------------------------------------------------------------|
|------------------------------------------------------------------|
|------------------------------------------------------------------|


Verse 1:
|------------------------------------------------------------------|
|-------------------1-0--------------------------------------------|
|-----------------------0------------------------------------------|
|--3-2------------2----------------3-2-----------------------------|
|------3--------0----------------------3---------------------------|
|------------------------------------------------------------------|
                            x2
                           then
|-------------------------------------------------------------------------|
|-------------------------------------------------------------------------|
|--4b55555555555555r44444444444444442222222222222222555555555444444444----|
|-------------------------------------------------------------------------|
|-------------------------------------------------------------------------|
|-------------------------------------------------------------------------|

Chorus:

F G C F      x4

Main Riff

Verse 2:
|------------------------------------------------------------------|
|-------1------0-----------3---------------------------------------|
|-----2----------0-------4-----------------------------------------|
|----------------------5-------------------------------------------|
|---0--------------------------------------------------------------|
|------------3-----------------------------------------------------|

|------------------------------------------------------------------|
|-------1------0-----------3---------------------------------------|
|-----2----------0-------4---------55x55x55-44x44x44---------------|
|----------------------5-----------xxxxxxxx-xxxxxxxx---------------|
|---0------------------------------33x33x33-22x22x22---------------|
|------------3-----------------------------------------------------|

Chorus

Bridge:
|-3h5p3-------5~---0h1p0--------5~---3~----------------------------|
|-------------5~----------------5~---3~----------------------------|
|--------5~---5~-----------2~---5~---4~----------------------------|
|------------------------------------------------------------------|
|------------------------------------------------------------------|
|------------------------------------------------------------------|
			x2

Main Riff

Chorus

Main Riff

End on:
|---|
|---|
|-5-|
|-5-|
|-3-|
|---|
Tap to rate this tab
 
# A B C D E F G H I J K L M N O P Q R S T U V W X Y Z