Song name
# A B C D E F G H I J K L M N O P Q R S T U V W X Y Z

Switchfoot - The Sound tab

----------------------
Switchfoot - The Sound (Solo)
----------------------
Album: Hello Hurricane (2009)

Tuning: ebgdaD

|---------------------------------15b17----------------|
|--13br---------------------13b------------------------|
|--------10---------12b--------------------------------|
|-----------------------12-----------------------------|
|------------------------------------------------------|
|-------------10b--------------------------------------|

Credit to www.youtube.com/akintomeatloaf
Watch his videos!
Tap to rate this tab
 
# A B C D E F G H I J K L M N O P Q R S T U V W X Y Z