Song name
# A B C D E F G H I J K L M N O P Q R S T U V W X Y Z

Switchfoot - Hello Hurricane tab

-----------------------------------------------------------------------------
                       HELLO HURRICANE (EARLY DEMOS)            SWITCHFOOT
-----------------------------------------------------------------------------

Tabbed by:HurricaneHerman
Guitar tuning:Standard(E-A-D-G-B-E)
Mandolin tuning:Standard(G-D-A-E)

P.M = Palm mute
/ = slide up
/ = slide down

This song is from their bonus disc "Building A Hurricane",which contains
recordings of the beginning stages of their songs from Hello Hurricane.
I've tabbed the guitar, and mandolin. I added the melody to the second verse,
'Cause they did not use this bridge in the finished product.

*Chords listed at end

 ~INTRO~

 |Acoustic guitar                                                00:31
e|--------------------------------|--------------------------------|
B|--------------------------------|--------------------------------|
G|0-0-0-0-0-0-0-0-0-0-0-0-0-0-0-0-|0-0-0-0-0-0-0-0-0-0-0-0-0-0-0-0-|
D|--------------------------------|--------------------------------|X[5]
A|--------------------------------|--------------------------------|
E|--------------------------------|--------------------------------|
 |Whoa-o--o- -whoa-o--o- -whoa--o--o-                              |       
 |Mandolin 1                                                       |
E|--------------------------------|--------------------------------|
A|--------------------------------|--------------------------------|
D|9---7---9---5---9---7---9---5---|9---7---9---5---9---7---9---5---|X[5]
G|-(0)-(0)-(0)-(0)-(0)-(0)-(0)-(0)|-(0)-(0)-(0)-(0)-(0)-(0)-(0)-(0)|

 |Acoustic guitar       Starts fading out at 00:34
 |Em7            Cadd9             Gsus2
e|--------------------------------|--------------------------------|
B|33-3-3-3-3-3-3-33-3-3-3-3-3-3-3-|33-3-3-3-3-3-3-33-3-3-3-3-3-3-3-|
G|00-0-0-0-0-0-0-00-0-0-0-0-0-0-0-|00-0-0-0-0-0-0-00-0-0-0-0-0-0-0-|
D|22-2-2-2-2-2-2-22-2-2-2-2-2-2-2-|00-0-0-0-0-0-0-00-0-0-0-0-0-0-0-|
A|22-2-2-2-2-2-2-33-3-3-3-3-3-3-3-|xx-x-x-x-x-x-x-xx-x-x-x-x-x-x-x-|
E|00-0-0-0-0-0-0------------------|33-3-3-3-3-3-3-33-3-3-3-3-3-3-3-|
 |Whoa-o--o- -whoa-o--o- -whoa--o--o-                              |  

It now enters the second recording.

Mandolin 1 plays this riff through the whole song, until verse 2, at
which it stops.

 |Mandolin 1                                                     01:50
E|--------------------------------|--------------------------------|
A|--------------------------------|--------------------------------|
D|--9---7---9---5---9---7---9---5-|--9---7---9---5---9---7---9---5-|REPEAT
G|--------------------------------|--------------------------------|

NOTE:Notice the mandolin is being played on the up beat.

 |Acoustic guitar
 |Em7             Cadd9            Gsus2                         00:40
e|--------------------------------|--------------------------------|
B|3-3-3-3-3-3-3-3-3-3-3-3-3-3-3-3-|3-3-3-3-3-3-3-3-3-3-3-3-3-3-3-3-|
G|0-0-0-0-0-0-0-0-0-0-0-0-0-0-0-0-|0-0-0-0-0-0-0-0-0-0-0-0-0-0-0-0-|
D|2-2-2-2-2-2-2-2-2-2-2-2-2-2-2-2-|0-0-0-0-0-0-0-0-0-0-0-0-0-0-0-0-|
A|2-2-2-2-2-2-2-2-3-3-3-3-3-3-3-3-|x-x-x-x-x-x-x-x-x-x-x-x-x-x-x-x-|
E|0-0-0-0-0-0-0-0-----------------|3-3-3-3-3-3-3-3-3-3-3-3-3-3-3-3-|
 |Whoa-o--o- -whoa-o--o- -whoa--o--o-                              |

 |Acoustic guitar                                                00:46
e|--------------------------------|--------------------------------|
B|--------------------------------|--------------------------------|
G|--------------------------------|--------------------------------|
D|--------------------------------|--------------------------------|
A|--------------------------------|--------------------------------|
E|3-3-3-3-3-3-3-3-3-3-3-3-3-3-3-3-|3-3-3-3-3-3-3-3-3-3-3-3-3-3-3-3-|
 |Whoa-o--o- -whoa-o--o- -whoa--o--o-                              |
 |Mandolin 2                      |                                |
E|--------------------------------|--------------------------------|
A|--------------------------------|--------------------------------|
D|--------------------------------|--------------------------------|
G|0-0-0-0-0-0-0-0-0-0-0-0-0-0-0-0-|0-0-0-0-0-0-0-0-0-0-0-0-0-0-0-0-|
 
 |Acoustic guitar                                                00:52
e|--------------------------------|--------------------------------|
B|--------------------------------|--------------------------------|
G|--------------------------------|--------------------------------|
D|--------------------------------|--------------------------------|
A|---------------\----------------|--------------------------------|
E|12121212121212128-8-8-8-8-8-8-8\|3-3-3-3-3-3-3-3-3-3-3-3-3-3-3-3-|
 |Whoa-o--o- -whoa-o--o- -whoa--o--o-                              |
 |Mandolin 2                                                       |
E|--------------------------------|--------------------------------|
A|--------------------------------|--------------------------------|
D|--------------------------------|--------------------------------|
G|9-9-9-9-9-9-9-9\5-5-5-5-5-5-5-5\|0-0-0-0-0-0-0-0-0-0-0-0-0-0-0-0-|

 |Acoustic guitar                                                00:58
e|--------------------------------|--------------------------------|
B|--------------------------------|--------------------------------|
G|--------------------------------|--------------------------------|
D|--------------------------------|--------------------------------|
A|--------------------------------|--------------------------------|
E|3-3-3-3-3-3-3-3-3-3-3-3-3-3-3-3-|3-3-3-3-3-3-3-3-3-3-3-3-3-3-3-3-|
 |Whoa-o--o- -whoa-o--o- -whoa--o--o-                              |
 |Mandolin 2                      |                                |
E|--------------------------------|--------------------------------|
A|--------------------------------|--------------------------------|
D|--------------------------------|--------------------------------|
G|0-0-0-0-0-0-0-0-0-0-0-0-0-0-0-0-|0-0-0-0-0-0-0-0-0-0-0-0-0-0-0-0-|

 ~VERSE~

 |Acoustic guitar                                                01:04
 |P.M- - - - - - - - - - - - - - - - - - - - - - - - - - - - - - - |
e|--------------------------------|--------------------------------|
B|--------------------------------|--------------------------------|
G|--------------------------------|--------------------------------|
D|--------------------------------|--------------------------------|
A|--------------------------------|--------------------------------|
E|12121212121212-\8-8-8-8-8-8-8-8\|3-3-3-3-3-3-3-3-3-3-3-3-3-3-3-3/|
 |      I've been watching the     sky's                           |
 |Mandolin 2                                                       |
E|--------------------------------|--------------------------------|
A|--------------------------------|--------------------------------|
D|--------------------------------|--------------------------------|
G|9---9---9---9---5-\-5---5---5-\-|0---0---0---0---0---0---0---0-/-|

 |Acoustic guitar                                                01:16     
 |P.M- - - - - - - - - - - - - - - - - - - - - - - - - - - - - - - | 
e|--------------------------------|--------------------------------|
B|--------------------------------|--------------------------------|
G|--------------------------------|--------------------------------|X[2]
D|--------------------------------|--------------------------------|  |
A|--------------------------------|--------------------------------|  |
E|12121212121212-\8-8-8-8-8-8-8-8\|3-3-3-3-3-3-3-3/7-7-7-7-7-7-7-7/|  |
 |  They've been turning blood     red                             |  |
 |         Not a doubt in my mind  anymore                         |  |
 |Mandolin 2                                                       |  |
E|--------------------------------|--------------------------------|  |
A|--------------------------------|--------------------------------|  |
D|--------------------------------|--------------------------------|X[2]
G|9---9---9---9-\-5---5---5---5-\-|0---0---0---0-/-4---4---4---4-/-|

 |Acoustic guitar                                                01:22  
 |P.M- - - - - - - - - - - - - - - - - - - - - - - - - - - - - - - | 
e|--------------------------------|--------------------------------|
B|--------------------------------|--------------------------------|
G|--------------------------------|--------------------------------|
D|--------------------------------|--------------------------------|
A|--------------------------------|--------------------------------|
E|8-8-8-8-8-8-8-8-1010101010101010|12121212121212121212121212121212|
 |      There's a storm    up    ahead                             |
 |Mandolin 2                                                       |
E|--------------------------------|--------------------------------|
A|--------------------------------|--------------------------------|
D|--------------------------------|--------------------------------|
G|5---5---5---5---7---7---7---7---|9---9---9---9---9---9---9---9---|

 ~CHORUS~

The guitar, and mandolin 2 just play the chords for the chorus.
NOTE:The lyrics are a little different on the first line.

Gsus2         Cadd9       Em
Hello hurricane you're enough
Gsus2         Cadd9       D       
Hello hurricane you can't silence my love
         Cadd9     Gsus2           D
I've got doors and windows boarded up
         Cadd9    Gsus2         D
All your dead end fury is not enough
                     Em7  Cadd9           Gsus2
You can't silence my love whoa o o whoa o o

 ~VERSE 2~

The drums and mandolin stop and only the acoustic guitar is playing.
I've tabbed this part where on the first row, are the chords, on the second,
are the lyrics, and on the third is the melody.

     Em7     Gsus2    E7
My regretful bags are packed 
G--F#-E---D---B----A---\G#--
     Am7           D            G              C
with memories that fall between nightmares and dreams
-G#---A---B----C----F#--E---D----B-----A----G----E---
      Em7     Gsus2     E7
Oh my word is life just birth
G--F#--E---D---B----A----\G#-
    Am7         D           G            C
and death oh my soul are we trapped in between
-G#---A---B--C---F#---E--D-----B----A---G--E--

(C)                  Em7  Cadd9           Gsus2
You can't silence my love whoa o o whoa o o     It fades out.

Here are a couple of "NOTES" from the parts that I couldn't fit them in.
You only palm mute the guitar, not the mandolin.
They're not 1's and 0's, or 1's and 2's, they are either 10's or 12's.

*Chords used(guitar)
    Gsus2  Cadd9   Em7    Em      D     E7     Am7     G      C
e|---(3)-----x-----(0)----(0)-----2------0------0------3------0----|
B|----3------3------3-----(0)-----3------0------1------0------1----|
G|----0------0------0------0------2------1------0------0------0----|
D|----0------2------2------2------0------0------2------0------2----|
A|----x------3------2------2------x------2------0------2------3----|
E|----3------x------0------0------x------0------x------3------0----|

*Chords used(mandolin)
    Gsus2  Cadd9    Em     D     Em7
E|----x------0------3------2------x------|
A|----5------3------2------0------7------|
D|----5------0------2------0------5------|
G|----0------7------x------2------7------|

I hope this tab is helpful, and you know, I've decided that I don't
mind if you rate my tab, so feel free.
=============================================================================
END
Tap to rate this tab
 
# A B C D E F G H I J K L M N O P Q R S T U V W X Y Z