Switchfoot - Sing It Out chords

Highlighted       Show chord diagrams
-----------------------------------------------------------------------------
     SING IT OUT[WRITING SESSION, RALEIGH, NC FALL "08]         SWITCHFOOT
----------------------------------------------------------------------------
Tabbed by:hurricaneherman
Tuning;Standard

This song is from their bonus disc "Building a Hurricane".

*Chords listed at end
X = harmonic chord

~INTRO~

Bm F#

~VERSE~

Bm                  X X
  I'm on the run     
G            Em         Bm   F#
  I'm on the ropes this time
Bm
  Where is my song
G              Em         Bm     F#    A
  Where is the song of my soul tonight

~CHORUS~

D             A
  Sing it out sing it out     NOTE:Starts fading out on second "sing it out".
               G          Em
  Take what is left of me

*Chords used
       Bm    F#    G     Em    A     D
e|-----2-----2-----3-----0-----0-----2-----|
B|-----3-----2-----0-----0-----3-----3-----|
G|-----4-----3-----0-----0-----3-----2-----|
D|-----4-----4-----0-----2-----3-----0-----|
A|-----2-----4-----2-----2-----0-----x-----|
E|-----x-----2-----3-----0-----x-----x-----|

This tab should be 100% correct, but if you find something wrong, you can
leave a comment, so I can fix it.
Tap to rate this tab
 
# A B C D E F G H I J K L M N O P Q R S T U V W X Y Z