Switchfoot - The Original tab

The Original - Switchfoot
Vice Verses

I did not tab out the actual solo part since i have not figured it out 
once i get it then i will post it 
i only have the part Guitar 2 strums and the note both guitars end on

I also just posted the chords. I didnt post the strum pattern

Intro
Guitar 1 & 2
E|--------------------------------------------------------------|
B|--------------------------------------------------------------|
G|--------------------------------------------------------------|
D|---10--------------10--------------10----------------x-8-8/10-|
A|------/11-11-9-7-7----/11-11-9-7------/11-11-9-7-7-7-x-8-8/10-|
E|-8-------------------------------8-------------------x-6-6/8--|

Guitar 1&2
E|----------|
B|----------|
G|------8---|
D|-10-6-8-8-|
A|-10-6-6-8-|
E|-8--4---6-|

Pre Chorus
Guitar 1&2
E|--------|
B|--------|
G|--------|
D|-10\6-3-|
A|-10\6-3-|
E|-8-\4-1-|

Chorus
Guitar 1&2
E|--------| |---|
B|--------| |---|
G|--------| |---|
D|-10-8-3-| |-6-|
A|-10-8-3-| |-6-|
E|-8--6-1-| |-4-|

Verse 2
Guitar 1
E|--------|
B|--------|
G|--------|
D|-8-8/10-|
A|-8-8/10-|
E|-6-6/8--|

Guitar 2
E|-x-|
B|-x-|
G|-5-|
D|-x-|
A|-x-|
E|-x-|

Bridge
Guitar 2                  Guitar 1&2
E|-x-|                    |----|
B|-8-|                    |-13-|
G|-8-| I am sorry for not |----|
D|-8-| Tabbing the solo   |----|
A|-x-| since i have not   |----|
E|-x-| figured it out yet |----|
Tap to rate this tab
 
# A B C D E F G H I J K L M N O P Q R S T U V W X Y Z