Switchfoot - Dark Horses Acoustic tab

*This is the older acoustic version of this song, i know they changed the lyrics. I put
in the new lyrics, but if you like the old lyrics, feel free to sing them :) another
thing is you can add or take away how many times you play the chords. I know when Jon 
does it solo, sometimes he uses the single E string ( 7...10...3....0) instead of all three.
Enjoy and feel free to corrector comment. *mute higher strings

**Drop D tuning

INTRO:
|------------------------------------------------------|
|------------------------------------------------------|
|------------------------------------------------------|
|-7------X------10------X------3------X------0---------|
|-7-(x5)-X-(x4)-10-(x4)-X-(x4)-3-(x4)-X-(x4)-0-(x6)----|
|-7------X------10------X------3------X------0---------|

|------------------------------------------------------|
|------------------------------------------------------|
|------------------------------------------------------|
|-7------X------10/------12/------3------X------0------|
|-7-(x5)-X-(x4)-10/-(x4)-12/-(x3)-3-(x4)-X-(x4)-0-(x6)-|
|-7------X------10/------12/------3------X------0------|

Verse 1:

|------------------------------------------------------|
|------------------------------------------------------|
|------------------------------------------------------|
|-7------X------10------X------3------X------0---------|
|-7-(x5)-X-(x4)-10-(x4)-X-(x4)-3-(x4)-X-(x4)-0-(x6)----|
|-7------X------10------X------3------X------0---------|

"Made my mistakes....."   " Heart cave in..."

|------------------------------------------------------|
|------------------------------------------------------|
|------------------------------------------------------|
|-7------X------10------X------3------X------0---------|
|-7-(x5)-X-(x4)-10-(x4)-X-(x4)-3-(x4)-X-(x4)-0-(x6)----|
|-7------X------10------X------3------X------0---------|

"I've got my scars.."    "Been to hell and back again"

PRE-CHORUS:

|------------------------------------------------------|
|------------------------------------------------------|
|-9-------X--------------------------------------------|
|-10-(x5)-X-(x4)-14-(x4)-X-(x4)-3-(x4)-X-(x4)--0-(x6)--| Play twice.
|-7-------X------10------X------3------X-------0-------|
|-7-------X------10------X------3------X-------0-------|

"Born for the blues skies......"   "We'll survive the rain..."
"Born for the sunrise......"    "We'll survive the pain.."

CHORUS:

|------------------------------------------------------|
|------------------------------------------------------| *you can take out
|------------------------------------------------------| the mutes if you
|-7------X------10------X------3------X------0---------| want and slide all
|-7-(x5)-X-(x4)-10-(x4)-X-(x4)-3-(x4)-X-(x4)-0-(x6)----| the chords
|-7------X------10------X------3------X------0---------|

"Hey, you can't count us out" ... "Living up against the crowd"

|------------------------------------------------------|
|------------------------------------------------------|
|-9-------X--------------------------------------------|
|-10-(x5)-X-(x4)-14-(x4)-X-(x4)-3-(x4)-X-(x4)--0-(x6)--|
|-7-------X------10------X------3------X-------0-------|
|-7-------X------10------X------3------X-------0-------|

"yeah, we are the dark horses......"

|------------------------------------------------------|
|------------------------------------------------------| *you can take out
|------------------------------------------------------| the mutes if you
|-7------X------10------X------3------X------0---------| want and slide all
|-7-(x5)-X-(x4)-10-(x4)-X-(x4)-3-(x4)-X-(x4)-0-(x6)----| the chords
|-7------X------10------X------3------X------0---------|

"Hey, it's not over now.."   "We look down........out..."

|------------------------------------------------------|
|------------------------------------------------------|
|-9-------X--------------------------------------------|
|-10-(x5)-X-(x4)-14-(x4)-X-(x4)-3-(x4)-X-(x4)--0-(x6)--|
|-7-------X------10------X------3------X-------0-------|
|-7-------X------10------X------3------X-------0-------|

"Yeah, we are the dark horses"

Verse 2:

|------------------------------------------------------|
|------------------------------------------------------|
|------------------------------------------------------|
|-7------X------10------X------3------X------0---------|
|-7-(x5)-X-(x4)-10-(x4)-X-(x4)-3-(x4)-X-(x4)-0-(x6)----|
|-7------X------10------X------3------X------0---------|

"We found a way out..."      "The city takes everything.."

|------------------------------------------------------|
|------------------------------------------------------|
|------------------------------------------------------|
|-7------X------10------X------3------X------0---------|
|-7-(x5)-X-(x4)-10-(x4)-X-(x4)-3-(x4)-X-(x4)-0-(x6)----|
|-7------X------10------X------3------X------0---------|

"but outside the crowd"       "I can feel my lungs again.."
"we're singing.."

CHORUS:

|------------------------------------------------------|
|------------------------------------------------------| *you can take out
|------------------------------------------------------| the mutes if you
|-7------X------10------X------3------X------0---------| want and slide all
|-7-(x5)-X-(x4)-10-(x4)-X-(x4)-3-(x4)-X-(x4)-0-(x6)----| the chords
|-7------X------10------X------3------X------0---------|

"Hey, you can't count us out" ... "Living up against the crowd"

|------------------------------------------------------|
|------------------------------------------------------|
|-9-------X--------------------------------------------|
|-10-(x5)-X-(x4)-14-(x4)-X-(x4)-3-(x4)-X-(x4)--0-(x6)--|
|-7-------X------10------X------3------X-------0-------|
|-7-------X------10------X------3------X-------0-------|

"yeah, we are the dark horses......"

|------------------------------------------------------|
|------------------------------------------------------| *you can take out
|------------------------------------------------------| the mutes if you
|-7------X------10------X------3------X------0---------| want and slide all
|-7-(x5)-X-(x4)-10-(x4)-X-(x4)-3-(x4)-X-(x4)-0-(x6)----| the chords
|-7------X------10------X------3------X------0---------|

"We, don't care what they say.." "You know we'll find a way"

|------------------------------------------------------|
|------------------------------------------------------|
|-9-------X--------------------------------------------|
|-10-(x5)-X-(x4)-14-(x4)-X-(x4)-3-(x4)-X-(x4)--0-(x6)--|
|-7-------X------10------X------3------X-------0-------|
|-7-------X------10------X------3------X-------0-------|

"yeah, we are the dark horses......" "We're singing.."

|-0---------0--------3--------3-------------------------|
|-2---------1--------3--------3-------------------------| *STRUM this pattern
|-2---------0--------0--------2-------------------------|
|-2---------2--------0--------0-------------------------|
|-x---------3--------2--------0-------------------------|
|-x---------0--------3--------3-------------------------|

"La, la la laa la la laa.." "La , la la la la Laaa."
(repeat this as many times as you want, the strumming pattern is in the song)

|---------------------------------------------------------|
|---------------------------------------------------------|
|---------------------------------------------------------|
|-7------X------10/------12/------3------X------0------7--|
|-7-(x5)-X-(x4)-10/-(x4)-12/-(x3)-3-(x4)-X-(x4)-0-(x6)-7--|
|-7------X------10/------12/------3------X------0------7--|


ENJOY :)
Tap to rate this tab
 
# A B C D E F G H I J K L M N O P Q R S T U V W X Y Z