Song name
# A B C D E F G H I J K L M N O P Q R S T U V W X Y Z

Switchfoot - Old Borego chords

Highlighted       Show chord diagrams
-----------------------------------------------------------------------------
                               OLD BOREGO                     SWITCHFOOT
-----------------------------------------------------------------------------

Tabbed by:hurricaneherman
Tuning:Standard

~INTRO~

e|------------------------------------|
B|--------2---2-----------------------|
G|--------2---2-------1---2---2-------|
D|----0h2-2---2-----------2---2-------|X[4]
A|2h4--------------------------------0|
E|------------------------------------|

~VERSE~

          A                 Dsus2       A           Dsus2
I've seen snow on Christmas eve gracing frosted evergreens
      A                 Dsus2           A        Dsus2
After most the trees go brown I'm still standing
          A               Dsus2           A                Dsus2
I've been miles away from home trapped in Charles Dicken's poems
          A                Dsus2              A        Dsus2
I've been freezing in this town but I'm still standing

~CHORUS~

            A       Asus2  D   Dsus2
It's almost New Year San Diego
        A        Asus2     D   Dsus2
Another Christmas in Old Borego
A              Asus2                     D         Dsus2
Face down in a little white shack in the back room
A              Asus2                 D             Dsus2
This town is a thirty five Ford in a bad mood in a bad mood

~INTERLUDE~

e|------------------------------------|
B|--------2---2-----------------------|
G|--------2---2-------1---2---2-------|
D|----0h2-2---2-----------2---2-------|X[4]
A|2h4--------------------------------0|
E|------------------------------------|

~VERSE~

       A             Dsus2       A                 Dsus2
I hear you when I'm asleep Missy you're the love I keep
      A                    Dsus2      A     Dsus2
But I still got no cash to send in my pocket
          A                     Dsus2           A              Dsus2
It's been months since we first kissed but your face is what I miss
      A                 Dsus2      A     Dsus2
And I keep your picture bent in my pocket

~CHORUS~

            A       Asus2  D   Dsus2
It's almost New Year San Diego
        A        Asus2     D   Dsus2
Another Christmas in Old Borego
A              Asus2                     D         Dsus2
Face down in a little white shack in the back room
A              Asus2                 D             Dsus2
This town is a thirty five Ford in a bad mood in a bad mood
A              Asus2                     D         Dsus2
Face down in a little white shack in the back room
A              Asus2                 D             Dsus2
This town is a thirty five Ford in a bad mood in a bad mood

~OUTRO~

e|------------------------------------|
B|--------2---2-----------------------|
G|--------2---2-------1---2---2-------|
D|----0h2-2---2-----------2---2-------|X[4] Then end on an A chord.
A|2h4--------------------------------0|
E|------------------------------------|

=============================================================================
This is one of my favorite Christmas songs. Probably because Switchfoot wrote
it.
    Peace, Love, I'm out.
Tap to rate this tab
 
# A B C D E F G H I J K L M N O P Q R S T U V W X Y Z