Song name
# A B C D E F G H I J K L M N O P Q R S T U V W X Y Z

Switchfoot - Afterlife tab

Afterlife: Switchfoot
Tabbed by Connor White

------------------------------------------------------------------------------------
If you're wondering how I was able to publish this tab before the album was released,
I have to go ahead and thank SwitchfootSongs on YouTube. Theyve had a bunch of the
songs from Vice Verses posted since like August which was super awesome. So ya thank
you SwitchfootSongs! Also, just listen to the song for the timing mine isnt exact.
This song is really good! Enjoy! Any corrections, comments, or questions just email
me at connor.bcw@gmail.com

Heres a link to the song on SwitchfootSongs channel:
http://www.youtube.com/watch?NR=1&v=bdr6KsAUsPA
------------------------------------------------------------------------------------

Standard Tuning
No Capo

^ = bend
/ = slide up
\ = slide down

Verse 1 (down, up, down)

     I tasted fire, Im ready to come alive
e|------------------------------------------------------------------|
B|------------------------------------------------------------------|
G|------------------------------------------------------------------|
D|---7-7-7--7-7-7----7-7-7--7-7-7----7-7-7--7-7-7----7-7-7--7-7-7---|
A|---7-7-7--7-7-7----7-7-7--7-7-7----7-7-7--7-7-7----7-7-7--7-7-7---|
E|---5-5-5--5-5-5----5-5-5--5-5-5----5-5-5--5-5-5----5-5-5--5-5-5---|

     I cant just shut it up and fake that Im all right, Im ready now, Im not waiting for 
the afterlife
e|------------------------------------------------------------------|
B|------------------------------------------------------------------|
G|------------------------------------------------------------------|
D|---7-7-7--7-7-7----7-7-7--7-7-7----3-3-3-3-3-3----5-5-5--5-5-5---|
A|---7-7-7--7-7-7----7-7-7--7-7-7----3-3-3-3-3-3----5-5-5--5-5-5---|
E|---5-5-5--5-5-5----5-5-5--5-5-5----1-1-1--1-1-1----3-3-3--5-5-5---|

     Ill let it burn the way the sunlight burns my skin
e|------------------------------------------------------------------|
B|------------------------------------------------------------------|
G|----------------7^--------------4^------------------------------7^|
D|---7-7-7--7-7-7----7-7-7--7-7-7----7-7-7--7-7-7----7-7-7--7-7-7---|
A|---7-7-7--7-7-7----7-7-7--7-7-7----7-7-7--7-7-7----7-7-7--7-7-7---|
E|---5-5-5--5-5-5----5-5-5--5-5-5----5-5-5--5-5-5----5-5-5--5-5-5---|

     The way I feel inside, the way the day begins, Im ready now, not waiting for the 
other side
e|------------------------------------------------------------------|
B|------------------------------------------------------------------|
G|--------------------------------4^--------------------------------|
D|---7-7-7--7-7-7----7-7-7--7-7-7----3-3-3--3-3-3----5-5-5--5-5-5---|
A|---7-7-7--7-7-7----7-7-7--7-7-7----3-3-3--3-3-3----5-5-5--5-5-5---|
E|---5-5-5--5-5-5----5-5-5--5-5-5----1-1-1--1-1-1----3-3-3--3-3-3---|

     Im ready now, Im ready now,
e|----------------------------------|
B|----------------------------------|
G|----------------------------------|
D|---3-3-3--3-3-3----5-5-5--5-5-5---|
A|---3-3-3--3-3-3----5-5-5--5-5-5---|
E|---1-1-1--1-1-1----3-3-3--3-3-3---|


Chorus

     Cuz every day, The world is made, A chance to
e|----------------------------------------------|
B|----------------------------------------------|
G|----------------------------------------------|
D|---7-7-7-7-7-7-7-7--10-10-10-10-10-10-10-10---|
A----7-7-7-7-7-7-7-7--10-10-10-10-10-10-10-10---|
E|---5-5-5-5-5-5-5-5--8--8--8--8--8--8--8--8----|

     change, but I feel the same, And I wonder
e|--------------------------------------|
B|--------------------------------------|
G|--------------------------------------|
D|---3-3-3-3-3-3-3-3--5-5-5-5-5-5-5-5---|
A|---3-3-3-3-3-3-3-3--5-5-5-5-5-5-5-5---|
E|---1-1-1-1-1-1-1-1--3-3-3-3-3-3-3-3---|

     Why, would I wait till I die, to come alive,
e|----------------------------------------------|
B|----------------------------------------------|
G|----------------------------------------------|
D|---7-7-7-7-7-7-7-7--10-10-10-10-10-10-10-10---|
A|---7-7-7-7-7-7-7-7--10-10-10-10-10-10-10-10---|
E|---5-5-5-5-5-5-5-5--8--8--8--8--8--8--8--8----|

     Im ready now, Im not waiting for the afterlife
e|--------------------------------------|
B|--------------------------------------|
G|--------------------------------------|
D|---3-3-3-3-3-3-3-3--5-5-5-5-5-5-5-5---|
A|---3-3-3-3-3-3-3-3--5-5-5-5-5-5-5-5---|
E|---1-1-1-1-1-1-1-1--3-3-3-3-3-3-3-3---|


Transition (down, up, down)

	                Yeah!
e|-------------------------------------|
B|-------------------------------------|
G|----------------7^--------------4^---|
D|---7-7-7--7-7-7----7-7-7--7-7-7------|
A|---7-7-7--7-7-7----7-7-7--7-7-7------|
E|---5-5-5--5-5-5----5-5-5--5-5-5------|


Verse 2 (down, up, down)

I still believe we can live forever, You and I we begin forever now, forever now, forever,
e|-------------------------------------------------------------------|
B|-----------------------------------------3^------------------------|
G|---------------------------------------------------------4^--------|
D|----7-7-7--7-7-7----7-7-7--7-7-7----3-3-3--3-3-3----5-5-5--5-5-5---|
A|----7-7-7--7-7-7----7-7-7--7-7-7----3-3-3--3-3-3----5-5-5--5-5-5---|
E|----5-5-5--5-5-5----5-5-5--5-5-5----1-1-1--1-1-1----3-3-3--3-3-3---|

     I still believe in us together, You and I we are here together now, forever now,
e|-------------------------------------------------------------------|
B|-----------------------------------------3^------------------------|
G|---------------------------------------------------------4^--------|
D|----7-7-7--7-7-7----7-7-7--7-7-7----3-3-3--3-3-3----5-5-5--5-5-5---|
A|----7-7-7--7-7-7----7-7-7--7-7-7----3-3-3--3-3-3----5-5-5--5-5-5---|
E|----5-5-5--5-5-5----5-5-5--5-5-5----1-1-1--1-1-1----3-3-3--3-3-3---|

     Forever now, or never now,
e|----------------------------------|
B|--------3^------------------------|
G|----------------------------------|
D|---3-3-3--3-3-3----5-5-5--5-5-5---|
A|---3-3-3--3-3-3----5-5-5--5-5-5---|
E|---1-1-1--1-1-1----3-3-3--3-3-3---|


Chorus

     Cuz every day, The world is made,
e|----------------------------------------------|
B|----------------------------------------------|
G|----------------------------------------------|
D|---7-7-7-7-7-7-7-7--10-10-10-10-10-10-10-10---|
A|---7-7-7-7-7-7-7-7--10-10-10-10-10-10-10-10---|
E|---5-5-5-5-5-5-5-5--8--8--8--8--8--8--8--8----|

     A chance to change, but I feel the same,
e|--------------------------------------|
B|--------------------------------------|
G|--------------------------------------|
D|---3-3-3-3-3-3-3-3--5-5-5-5-5-5-5-5---|
A|---3-3-3-3-3-3-3-3--5-5-5-5-5-5-5-5---|
E|---1-1-1-1-1-1-1-1--3-3-3-3-3-3-3-3---|

      And I wonder, why, would I wait till I die, to come alive,
e|----------------------------------------------|
B|----------------------------------------------|
G|----------------------------------------------|
D|---7-7-7-7-7-7-7-7--10-10-10-10-10-10-10-10---|
A|---7-7-7-7-7-7-7-7--10-10-10-10-10-10-10-10---|
E|---5-5-5-5-5-5-5-5--8--8--8--8--8--8--8--8----|

     Im ready now, Im not waiting for the afterlife
e|--------------------------------------|
B|--------------------------------------|
G|--------------------------------------|
D|---3-3-3-3-3-3-3-3--5-5-5-5-5-5-5-5---|
A|---3-3-3-3-3-3-3-3--5-5-5-5-5-5-5-5---|
E|---1-1-1-1-1-1-1-1--3-3-3-3-3-3-3-3---|


Solo

e|--------------------------------|
B|------------11------------------|
G|---------------12---------------|
D|---10-12-13-------10-10-10------|
A|---------------------------13---|
E|--------------------------------|

e|-----------------------------------------|
B|------------11---------------------------|
G|---------------12-11/12\11----12/13\12---|
D|---10-12-13----------------11------------|
A|-----------------------------------------|
E|-----------------------------------------|

e|---------------------------------------|
B|------------11----16-15-------13^------|
G|---------------12-------15-12-----16---|
D|---10-12-13----------------------------|
A|---------------------------------------|
E|---------------------------------------|

e|--------------------------------|
B|------------11------------------|
G|---------------12-------13^^^---|
D|---10-12-13-------14\12---------|
A|--------------------------------|
E|--------------------------------|


Final Chorus

     Every day, A choice is made, Every day
e|----------------------------------------------|
B|----------------------------------------------|
G|----------------------------------------------|
D|---7-7-7-7-7-7-7-7--10-10-10-10-10-10-10-10---|
A----7-7-7-7-7-7-7-7--10-10-10-10-10-10-10-10---|
E|---5-5-5-5-5-5-5-5--8--8--8--8--8--8--8--8----|

     I choose my fate, And I wonder,
e|--------------------------------------|
B|--------------------------------------|
G|--------------------------------------|
D|---3-3-3-3-3-3-3-3--5-5-5-5-5-5-5-5---|
A|---3-3-3-3-3-3-3-3--5-5-5-5-5-5-5-5---|
E|---1-1-1-1-1-1-1-1--3-3-3-3-3-3-3-3---|

     Why, would I wait till I die, to come alive,
e|----------------------------------------------|
B|----------------------------------------------|
G|----------------------------------------------|
D|---7-7-7-7-7-7-7-7--10-10-10-10-10-10-10-10---|
A|---7-7-7-7-7-7-7-7--10-10-10-10-10-10-10-10---|
E|---5-5-5-5-5-5-5-5--8--8--8--8--8--8--8--8----|

     To come alive, Every day,
e|--------------------------------------|
B|--------------------------------------|
G|--------------------------------------|
D|---3-3-3-3-3-3-3-3--5-5-5-5-5-5-5-5---|
A|---3-3-3-3-3-3-3-3--5-5-5-5-5-5-5-5---|
E|---1-1-1-1-1-1-1-1--3-3-3-3-3-3-3-3---|

     Every day, Every day,
e|----------------------------------------------|
B|----------------------------------------------|
G|----------------------------------------------|
D|---7-7-7-7-7-7-7-7--10-10-10-10-10-10-10-10---|
A|---7-7-7-7-7-7-7-7--10-10-10-10-10-10-10-10---|
E|---5-5-5-5-5-5-5-5--8--8--8--8--8--8--8--8----|

     I still feel the same, And I wonder
e|--------------------------------------|
B|--------------------------------------|
G|--------------------------------------|
D|---3-3-3-3-3-3-3-3--5-5-5-5-5-5-5-5---|
A|---3-3-3-3-3-3-3-3--5-5-5-5-5-5-5-5---|
E|---1-1-1-1-1-1-1-1--3-3-3-3-3-3-3-3---|


     Why, would I wait till I die, to come alive
e|----------------------------------------------|
B|----------------------------------------------|
G|----------------------------------------------|
D|---7-7-7-7-7-7-7-7--10-10-10-10-10-10-10-10---|
A|---7-7-7-7-7-7-7-7--10-10-10-10-10-10-10-10---|
E|---5-5-5-5-5-5-5-5--8--8--8--8--8--8--8--8----|

     Im ready now, Im not waiting for the afterlife,
e|--------------------------------------|
B|--------------------------------------|
G|--------------------------------------|
D|---3-3-3-3-3-3-3-3--5-5-5-5-5-5-5-5---|
A|---3-3-3-3-3-3-3-3--5-5-5-5-5-5-5-5---|
E|---1-1-1-1-1-1-1-1--3-3-3-3-3-3-3-3---|

     Im ready now, Im ready now, Im ready now, Im ready,
e|--------------------------------------|
B|--------------------------------------|
G|--------------------------------------|
D|---3-3-3-3-3-3-3-3--5-5-5-5-5-5-5-5---|
A|---3-3-3-3-3-3-3-3--5-5-5-5-5-5-5-5---|
E|---1-1-1-1-1-1-1-1--3-3-3-3-3-3-3-3---|

     Im ready now, Im not waiting for the afterlife
e|----------------------------------------------|
B|----------------------------------------------|
G|----------------------------------------------|
D|---7-7-7-7-7-7-7-7--10-10-10-10-10-10-10-10---|
A|---7-7-7-7-7-7-7-7--10-10-10-10-10-10-10-10---|
E|---5-5-5-5-5-5-5-5--8--8--8--8--8--8--8--8----|

	                              Yeah!           Yeah!
e|-----------------------------------------------------|
B|------------------------------------------------7^---|
G|--------------------------------7^-------------------|
D|---7-7-7--7-7-7----7-7-7--7-7-7----7-7-7--7-7-7------|
A|---7-7-7--7-7-7----7-7-7--7-7-7----7-7-7--7-7-7------|
E|---5-5-5--5-5-5----5-5-5--5-5-5----5-5-5--5-5-5------|

	              Yeah!
e|----------------7^----------------|
B|----------------------------------|
G|----------------------------------|
D|---7-7-7--7-7-7----7-7-7--7-7-7---|
A|---7-7-7--7-7-7----7-7-7--7-7-7---|
E|---5-5-5--5-5-5----5-5-5--5-5-5---|
Tap to rate this tab
# A B C D E F G H I J K L M N O P Q R S T U V W X Y Z