Song name
# A B C D E F G H I J K L M N O P Q R S T U V W X Y Z

Switchfoot - The War Inside tab

Switchfoot
The War Inside
Vice Verses
Guitar Tab

Intro/Verse
E|---------------------------------------------------------------|
B|---------------------------------------------------------------|
G|---------------------------------------------------------------|
D|---------------------------------------------------------------|
A|-5---5---5-5---5---5---5---5-8---5---5---5-5---5---5---5---5-8-|
D|---------------------------------------------------------------|

E|---------------------------------------------------------------|
B|---------------------------------------------------------------|
G|---------------------------------------------------------------|
D|---------------------------------------------------------------|
A|-5---5---5-5---5---5---5---5-8-*-5---5---5-5---5---5---0-3-0-3-|
D|---------------------------------------------------------------|

* - Where you stop at the end of the verse

Chorus
E|-------------------------------|
B|-------------------------------|
G|-------------------------------|
D|-------------------------------|
A|-5---5---5-5---5---5---5---5-3-|
D|-------------------------------|

Outro
E|------------------------------------------------------------|
B|------------------------------------------------------------|
G|------------------------------------------------------------|
D|------------------------------------------------------------|
A|-5---5---5-5---5---5---5---5-8---5---5-5---5---5---5---5-10-|
D|------------------------------------------------------------|

E|-------------------------------------------------------|
B|-------------------------------------------------------|
G|-------------------------------------------------------|
D|-------------------------------------------------------|
A|-5---5-5---5---5---5---5-8---5---5-5---5---5---0-3-0-3-|
D|-------------------------------------------------------|
Tap to rate this tab
# A B C D E F G H I J K L M N O P Q R S T U V W X Y Z