Song name
# A B C D E F G H I J K L M N O P Q R S T U V W X Y Z

Switchfoot - Restless tab

My first tab, so....


E|---------------7-----------------------|
B|---5--4--4--5------5---4--2s4--0-------|
G|-4-------------------------------------|   
D|---------------------------------------|
A|---------------------------------------|
E|---------------------------------------|

E|---------------7-----------------------|
B|---5--4--4--5------5---4--4--0---------|
G|-4-------------------------------------|   
D|---------------------------------------|
A|---------------------------------------|
E|---------------------------------------|

I'm lazy to figure out the rest now.

Comment please
Tap to rate this tab
 
# A B C D E F G H I J K L M N O P Q R S T U V W X Y Z