Song name
# A B C D E F G H I J K L M N O P Q R S T U V W X Y Z

Switchfoot - Where I Belong tab

I'm almost sure, if there's something wrong, tell me in the comments area.

e|---------------------------|
B|---------------------------|
G|---------------------------| (3x) Then
D|---------------------------|
A|-------12----9-------------|
E|--10-----------------------|



e|---------------------------|
B|---------------------------|
G|---------------------------|
D|---------------------------|
A|-------14----9-------------|
E|--10-----------------------|

Comments please
Tap to rate this tab
 
# A B C D E F G H I J K L M N O P Q R S T U V W X Y Z