Song name
# A B C D E F G H I J K L M N O P Q R S T U V W X Y Z

Switchfoot - Bullet Soul tab

                             BULLET SOUL INTRO

E------------------------------------------------------------------------|
B------------------------------------------------------------------------|
G------------------------------------------------------------------------|
D-7----------------------------------------------------------------------|
A-------7-7-7-7-7-----------5-5-5-5-6-7-7-7-7-7-----------5-5-5-5-6------|
D----------------7-6-5-5-5-5-------------------7-6-5-5-5-5---------------|

E------------------------------------------------------------------------|
B------------------------------------------------------------------------|
G------------------------------------------------------------------------|
D-9-9-9-9-9-7-6-5-5-5-5-7-7-7-7-8-9-9-9-9-9-12-7-6-5-5-5-5-7-7-7-7-8-----|
A-7-7-7-7-7-7-6-5-5-5-5-5-5-5-5-6-7-7-7-7-7-10-7-6-5-5-5-5-5-5-5-5-6-----|
D-----------7-6-5-5-5-5------------------------7-6-5-5-5-5---------------|

Not only is this the intro, but it's also the main riff so it play this continuously 
throughout the song so overall, pretty easy!

Thanks for looking!

Tabbed by sonicguitar91
Tap to rate this tab
# A B C D E F G H I J K L M N O P Q R S T U V W X Y Z