Song name
# A B C D E F G H I J K L M N O P Q R S T U V W X Y Z

Switchfoot - The War Inside tab

-----------------------------------------------------------------------------
                             THE WAR INSIDE                 SWITCHFOOT
-----------------------------------------------------------------------------

Tabbed by:hurricaneherman

Guitar 1:Drop D tuning(D-A-D-G-B-E)
Guitar 2:Drop D tuning(D-A-D-G-B-E)
Guitar 3:Drop D tuning(D-A-D-G-B-E)

This song is very simple. I think it's focusing more on the bass.

~INTRO~

 |Gtr.1|
E|----------------------------------------------------------------|
B|----------------------------------------------------------------|
G|----------------------------------------------------------------|
D|0---0---0-0---0---0---0---0-3---0---0---0-0---0---0---0---0-3---|X2
A|----------------------------------------------------------------|
D|----------------------------------------------------------------|
 |Gtr.2|(play this part on the second time around)                |
E|----------------------------------------------------------------|
B|----------------------------------------------------------------|
G|----------------------------------------------------------------|
D|----------------------------------------------------------------|
A|------------------------------------------------------------3-\-|
D|--------------------------------------------------------3h5-----|

~VERSE~

 |Gtr.1|
E|----------------------------------------------------------------|
B|----------------------------------------------------------------|
G|----------------------------------------------------------------|
D|0---0---0-0---0---0---0---0-3---0---0---0-0---0---0---0---0-3---|
A|----------------------------------------------------------------|
D|----------------------------------------------------------------|
 |Gtr.2|                                                          |__
E|----------------------------------------------------------------|  |
B|----------------------------------------------------------------|  |
G|----------------------------------------------------------------|  |
D|----0---0-0-0-0---0---0---0-3-\-----0---0-0-0-0---0---0---0-3-\-|  |
A|----------------------------------------------------------------|  |
E|----------------------------------------------------------------|  |
    Put your hands up open wide Put your hands up side by side       |
  Let the kick drum kick one time breathe out let your mind unwind   |
                                                                     |X2
 |Gtr.1|                                                             |
E|----------------------------------------------------------------|  |
B|----------------------------------------------------------------|  |
G|----------------------------------------------------------------|  |
D|0---0---0-0---0---0---0---0-3---0---0---0-0---0---0---0---0-3---|  |
A|----------------------------------------------------------------|  |
D|----------------------------------------------------------------|  |
 |Gtr.2|                                                          |__|
E|----------------------------------------------------------------|
B|----------------------------------------------------------------|
G|----------------------------------------------------------------|
D|----0---0-0-0-0---0---0---0-3-\-----0---0-0-0-0---0-------------|
A|------------------------------------------------------------3-\-|
E|--------------------------------------------------------3h5-----|
Age don't matter like race don't matter like place don't matter like what's inside
Eyes on the ceiling looking for the feeling wide open let your own eyes shine

~PRE-CHORUS~

 |Gtr.1|
E|----------------------------------------------------------------|
B|----------------------------------------------------------------|
G|----------------------------------------------------------------|
D|0---0---0-0---0---0---0---0-3---0---0---0-0---0---0---0---0-3---|
A|----------------------------------------------------------------|
D|----------------------------------------------------------------|
 |Gtr.2|                                                          |
E|----------------------------------------------------------------|
B|----------------------------------------------------------------|
G|----------------------------------------------------------------|
D|----0---0-0-0-0---0---0---0-3-\-----0---0-0-0-0---0---0---0-3-\-|
A|----------------------------------------------------------------|
E|----------------------------------------------------------------|
     Yeah it's where the fight begins yeah underneath the skin

 |Gtr.1|
E|----------------------------------------------------------------|
B|----------------------------------------------------------------|
G|----------------------------------------------------------------|
D|0---0---0-0---0---0---0---0-3-----------------------------------|
A|----------------------------------------------------------------|
D|----------------------------------------------------------------|
 |Gtr.2|                                                          |
E|----------------------------------------------------------------|
B|----------------------------------------------------------------|
G|----------------------------------------------------------------|
D|----0---0-0-0-0---0---0---0-3-\-0-------------------------------|
A|----------------------------------------------------------------|
E|----------------------------------------------------------------|
Between these hopes and where we've been every fight comes from the fight within

~CHORUS~

 |Gtr.1|
E|----------------------------------------------------------------|
B|----------------------------------------------------------------|
G|----------------------------------------------------------------|
D|0---0---0-0---0---0---0---0-3---0---0---0-0---0---0---0---0-----|
A|------------------------------------------------------------3---|
D|----------------------------------------------------------------|
 |Gtr.2|                                                          |X4
E|----------------------------------------------------------------|
B|----------------------------------------------------------------|
G|----------------------------------------------------------------|
D|----------------------------------------------------------------|
A|----------------------------------------------------------------|
E|0---0---0-0-0-0---0---0-0-0-3-------0---0-0-0-0---0---0-0-0-3---|
           I am the war inside I am the battle line
           I am the rising tide I am the war I fight
   Eyes open open wide I can feel it like a crack in my spine
   I can feel it like the back of my mind I am the war inside

~VERSE~

No guitar.

I get the feeling that we're living in sci-fi
I get the feeling that our weapons are lo-fi
Aint no killer like pride no killer like I
No killer like what's inside

~PRE-CHORUS~

 |Gtr.1|
E|----------------------------------------------------------------|
B|----------------------------------------------------------------|
G|----------------------------------------------------------------|
D|0---0---0-0---0---0---0---0-3---0---0---0-0---0---0---0---0-3---|
A|----------------------------------------------------------------|
D|----------------------------------------------------------------|
 |Gtr.2|                                                          |
E|----------------------------------------------------------------|
B|----------------------------------------------------------------|
G|----------------------------------------------------------------|
D|----0---0-0-0-0---0---0---0-3-\-----0---0-0-0-0---0---0---0-3-\-|
A|----------------------------------------------------------------|
E|----------------------------------------------------------------|
  Yeah it's in the air we breathe yeah it's in the blood we bleed

 |Gtr.1|
E|----------------------------------------------------------------|
B|----------------------------------------------------------------|
G|----------------------------------------------------------------|
D|0---0---0-0---0---0---0---0-3-----------------------------------|
A|----------------------------------------------------------------|
D|----------------------------------------------------------------|
 |Gtr.2|                          P.M---------------------|       |
E|----------------------------------------------------------------|
B|----------------------------------------------------------------|
G|----------------------------------------------------------------|
D|----0---0-0-0-0---0---0---0-3-\-5-x-x-x-5-x-x-x-5-x-x-x-5-x-x-x-|
A|--------------------------------5-x-x-x-5-x-x-x-5-x-x-x-5-x-x-x-|
E|--------------------------------5-x-x-x-5-x-x-x-5-x-x-x-5-x-x-x-|
Beneath these dreams and what we've seen we are the kids of the in between

~CHORUS~

 |Gtr.1|
E|----------------------------------------------------------------|
B|----------------------------------------------------------------|
G|----------------------------------------------------------------|
D|0---0---0-0---0---0---0---0-3---0---0---0-0---0---0---0---0-----|
A|------------------------------------------------------------3---|
D|----------------------------------------------------------------|
 |Gtr.2|                                                          |X6
E|----------------------------------------------------------------|
B|----------------------------------------------------------------|
G|----------------------------------------------------------------|
D|----------------------------------------------------------------|
A|----------------------------------------------------------------|
E|0---0---0-0-0-0---0---0-0-0-3-------0---0-0-0-0---0---0-0-0-3---|
           I am the war inside I am the battle line
           I am the rising tide I am the war I fight
   Eyes open open wide I can feel it like a crack in my spine
   I can feel it like the back of my mind I am the war inside
          I am the war inside I am the war inside X2

~INTERLUDE~

 |Gtr.1|
E|----------------------------------------------------------------|
B|----------------------------------------------------------------|
G|----------------------------------------------------------------|
D|0---0---0-0---0---0---0---0-3---0---0---0-0---0---0---0---0-3---|
A|----------------------------------------------------------------|
D|----------------------------------------------------------------|
 |Gtr.2|                                                          |
E|----------------------------------------------------------------|
B|----------------------------------------------------------------|
G|----------------------------------------------------------------|
D|0---0---0-0---0---0---0---0-3-\---------0-0-0-0---0---0---0-3-\-|
A|----------------------------------------------------------------|
D|--------------------------------3-\-----------------------------|

 |Gtr.1|
E|----------------------------------------------------------------|
B|----------------------------------------------------------------|
G|----------------------------------------------------------------|
D|0---0---0-0---0---0---0---0-3---0---0---0-0---0---0---0---0-3---|
A|----------------------------------------------------------------|
D|----------------------------------------------------------------|
 |Gtr.2|                                                          |
E|----------------------------------------------------------------|
B|----------------------------------------------------------------|
G|----------------------------------------------------------------|
D|--------------------------------0---0---0-0---0---0-------------|
A|------------------------------------------------------------3---|
D|--------------3-\---------------------------------------3h5-----|
 |Gtr.3|                                                          |
E|----------------------------------------------555555555555555555|
B|----------------------------------------------------------------|
G|----------------------------------------------------------------|
D|----------------------------------------------------------------|
A|----------------------------------------------------------------|
D|----------------------------------------------------------------|

~VERSE~


 |Gtr.1|
E|----------------------------------------------------------------|
B|----------------------------------------------------------------|
G|----------------------------------------------------------------|
D|0---0---0-0---0---0---0---0-3---0---0---0-0---0---0---0---0-3---|
A|----------------------------------------------------------------|
D|----------------------------------------------------------------|
 |Gtr.2|                                                          |
E|----------------------------------------------------------------|
B|----------------------------------------------------------------|
G|----------------------------------------------------------------|
D|----0---0-0-0-0---0---0---0-3-\-----0---0-0-0-0---0---0---0-3-\-|
A|----------------------------------------------------------------|
E|----------------------------------------------------------------|
 |Gtr.3| (10's)                                                   |
E|101010101010101010101010(fade out)------------------------------|
B|----------------------------------------------------------------|
G|----------------------------------------------------------------|
D|----------------------------------------------------------------|
A|----------------------------------------------------------------|
E|----------------------------------------------------------------|
    Put your hands up open wide Put your hands up side by side

 |Gtr.1|
E|----------------------------------------------------------------|
B|----------------------------------------------------------------|
G|----------------------------------------------------------------|
D|0---0---0-0---0---0---0---0-3---0---0---0-0---0---0---0---0-3---|
A|----------------------------------------------------------------|
D|----------------------------------------------------------------|
 |Gtr.2|                                                          |
E|----------------------------------------------------------------|
B|----------------------------------------------------------------|
G|----------------------------------------------------------------|
D|----0---0-0-0-0---0---0---0-3-\-----0---0-0-0-0---0-------------|
A|------------------------------------------------------------3-\-|
E|--------------------------------------------------------3h5-----|
Age don't matter like Race don't matter like Place don't matter like what's inside


~PRE-CHORUS~

 |Gtr.1|
E|----------------------------------------------------------------|
B|----------------------------------------------------------------|
G|----------------------------------------------------------------|
D|0---0---0-0---0---0---0---0-3---0---0---0-0---0---0---0---0-3---|
A|----------------------------------------------------------------|
D|----------------------------------------------------------------|
 |Gtr.2|                                                          |
E|----------------------------------------------------------------|
B|----------------------------------------------------------------|
G|----------------------------------------------------------------|
D|----0---0-0-0-0---0---0---0-3-\-----0---0-0-0-0---0---0---0-3-\-|
A|----------------------------------------------------------------|
E|----------------------------------------------------------------|
       Yeah every thought or deed yeah every tree or seed

 |Gtr.1|
E|----------------------------------------------------------------|
B|----------------------------------------------------------------|
G|----------------------------------------------------------------|
D|0---0---0-0---0---0---0---0-3-----------------------------------|
A|----------------------------------------------------------------|
D|----------------------------------------------------------------|
 |Gtr.2|                                                          |
E|----------------------------------------------------------------|
B|----------------------------------------------------------------|
G|----------------------------------------------------------------|
D|----0---0-0-0-0---0---0---0-3-\---------------------------------|
A|----------------------------------------------------------------|
E|----------------------------------------------------------------|
The big things come from the little dreams every world is made by make believe

~CHORUS~

 |Gtr.1|
E|----------------------------------------------------------------|
B|----------------------------------------------------------------|
G|----------------------------------------------------------------|
D|0---0---0-0---0---0---0---0-3---0---0---0-0---0---0---0---0-----|
A|------------------------------------------------------------3---|
D|----------------------------------------------------------------|
 |Gtr.2|                                                          |X8
E|----------------------------------------------------------------|
B|----------------------------------------------------------------|
G|----------------------------------------------------------------|
D|----------------------------------------------------------------|
A|----------------------------------------------------------------|
E|0---0---0-0-0-0---0---0-0-0-3-------0---0-0-0-0---0---0-0-0-3---|
           I am the war inside I am the battle line
           I am the rising tide I am the war I fight
   Eyes open open wide I can feel it like a crack in my spine
   I can feel it like the back of my mind I am the war inside
          I am the war inside I am the war inside X4

~OUTRO~

 |Gtr.1|
E|----------------------------------------------------------------|
B|----------------------------------------------------------------|
G|----------------------(1/4)---------------------------(1/4)-----|
D|0---0-0---0---0---0---0-3-------0---0-0---0---0---0---0-5-------|
A|----------------------------------------------------------------|
D|----------------------------------------------------------------|
 |Gtr.2|                                                          |
E|----------------------------------------------------------------|
B|----------------------------------------------------------------|
G|----------------------------------------------------------------|
D|----------------------------------------------------------------|
A|----------------------------------------------------------------|
D|0---0-0---0---0---0---0-3-\-----0---0-0---0---0---0---0-5-------|

 |Gtr.1|
E|----------------------------------------------------------------|
B|----------------------------------------------------------------|
G|----------------------(1/4)-------------------------------------|
D|0---0-0---0---0---0---0-3-------0---0-0---0---0---0---0---------|
A|--------------------------------------------------------3-------|
D|----------------------------------------------------------------|
 |Gtr.2|                                                          |
E|----------------------------------------------------------------|
B|----------------------------------------------------------------|
G|----------------------------------------------------------------|
D|----------------------------------------------------------------|
A|--------------------------------------------------------3-------|
E|0---0-0---0---0---0---0-3-\-----0---0-0---0---0-----3h5---------|

=============================================================================
P.M = palm mute
\ = slide down
h = hammer on
1/4 = 1/4 bend

Hope this tab works for you but if it doesn't, please leave a comment so I
know.

Peace, Love, I'm out.
Tap to rate this tab
 
# A B C D E F G H I J K L M N O P Q R S T U V W X Y Z