Song name
# A B C D E F G H I J K L M N O P Q R S T U V W X Y Z

Switchfoot - Vice Verses tab

-----------------------------------------------------------------------------
                                VICE VERSES                SWITCHFOOT
-----------------------------------------------------------------------------

Tabbed by:hurricaneherman
Tuning:Drop D(D-A-D-G-B-E)

This whole song is played on an acoustic guitar only.

~INTRO~

E|----------------------------------------------------------------|
B|----------------------------------------------------------------|
G|----------------------------------------------------------------|
D|--2---2---2---2---2---2---2---2---4---4---4---4---4---4---4---4-|
A|0---0---0---0---0---0---0---0-----------------------------------|
D|--------------------------------0---0---0---0---0---0---0---0---|

E|----------------------------------------------------------------|
B|----------------------------------------------------------------|
G|----------------------------------------------------------------|
D|--6---6---6---6---6---6---6---6---4---4---4---4---4---6---7---7-|
A|0---0---0---0---0---0---0---0-----------------------------------|
D|--------------------------------0---0---0---0---0---0---0---0---|

E|----------------------------------------------------------------|
B|----------------------------------------------------------------|
G|----------------------------------------------------------------|
D|--2---2---2---2---2---2---2---2---4---4---4---4---4---4---4---4-|
A|0---0---0---0---0---0---0---0-----------------------------------|
D|--------------------------------0---0---0---0---0---0---0---0---|

E|----------------------------------------------------------------|
B|----------------------------------------------------------------|
G|----------------------------------------------------------------|
D|--6---6---6---6---6---9---11--11--4---4---4---4---4---6---7---7-|
A|0---0---0---0---0---0---0---0-----------------------------------|
D|--------------------------------0---0---0---0---0---0---0---0---|

~VERSE~

E|----------------------------------------------------------------|
B|----------------------------------------------------------------|
G|----------------------------------------------------------------|_____
D|--2---2---2---2---2---2---2---2---4---4---4---4---4---4---4---4-|     |
A|0---0---0---0---0---0---0---0-----------------------------------|     |
D|--------------------------------0---0---0---0---0---0---0---0---|     |
Walking along the high tide line watching the pacific form the sidelines|
Looking for signs in the night sky wishing that I wasn't such a nice guy|X2
                                                                        |
E|----------------------------------------------------------------|     |
B|----------------------------------------------------------------|     |
G|----------------------------------------------------------------|     |
D|--6---6---6---6---6---6---6---6---4---4---4---4---4---4---4---4-|_____|
A|0---0---0---0---0---0---0---0-----------------------------------|
D|--------------------------------0---0---0---0---0---0---0---0---|
Wonder what it means to live together looking for more than just guidelines
  Wonder what it means to live forever wonder what it means to die

~CHORUS~

E|----------------------------------------------------------------|
B|----------------------------------------------------------------|
G|----------------------------------------------------------------|
D|--2---2---2---2---2---2---2---2---4---4---4---4---4---4---4---4-|X2
A|0---0---0---0---0---0---0---0-----------------------------------|
E|--------------------------------0---0---0---0---0---0---0---0---|
            I know that there's a meaning to it all
            A little resurrection every time I fall

E|----------------------------------------------------------------|
B|----------------------------------------------------------------|
G|----------------------------------------------------------------|
D|--7---7---7---7---6---6---6---6---4---4---4---4---4---4---4---4-|
A|----------------------------------------------------------------|
E|4---4---4---4---2---2---2---2---0---0---0---0---0---0---0---0---|
You got your babies I got my hearses every blessing comes with a set of curses

E|----------------------------------------------------------------|
B|----------------------------------------------------------------|
G|----------------------------------------------------------------|
D|--2---2---2---2---2---2---2---2---4---4---4---4---2---2---2---2-|
A|----------------------------------------------------------------|
E|2---2---2---2---2---2---2---2---0---0---0---0---2---2---2---2---|
     I got my vices I got my vice verses I got my vice verses

~INTERLUDE~

E|----------------------------------------------------------------|
B|----------------------------------------------------------------|
G|----------------------------------------------------------------|
D|--2---2---2---2---2---2---2---2---4---4---4---4---4---4---4---4-|
A|0---0---0---0---0---0---0---0-----------------------------------|
D|--------------------------------0---0---0---0---0---0---0---0---|

E|----------------------------------------------------------------|
B|----------------------------------------------------------------|
G|----------------------------------------------------------------|
D|--6---6---6---6---6---9---11--11--4---4---4---4---4---6---7---7-|
A|0---0---0---0---0---0---0---0-----------------------------------|
D|--------------------------------0---0---0---0---0---0---0---0---|

~VERSE~

Repeat verse with these lyrics.

The wind could be my new obsession
The wind could be my next depression
The wind goes anywhere it wants to
Wishing that I learned my lesson

The ocean sounds like a garage band
Coming at me like a drunk man
The ocean telling me a thousand stories
None of them are lies

~CHORUS~

Repeat chorus.

~BRIDGE~

E|----------------------------------------------------------------|
B|----------------------------------------------------------------|
G|--7---4---7---4---7---4---7---7---4---2---4---4---4---1---4---4-|
D|0---0---0---0---0---0---0---0-----------------------------------|X2
A|--------------------------------0---0---0---0-------------------|
E|------------------------------------------------2---2---2---2---|
                      Let the Pacific laugh
                        Be on my epitaph

E|----------------------------------------------------------------|
B|----------------------------------------------------------------|
G|--4---2---4---4---4---1---4---4---4---2---4---4---4---1---4---4-|
D|0---0---0---0-------------------0---0---0---0-------------------|
A|----------------------------------------------------------------|
E|----------------2---2---2---2-------------------2---2---2---2---|
           With its rising and falling and after all

E|----------------------------------------------------------------|
B|----------------------------------------------------------------|
G|--4---2---4---4---4---2---4---4---4---2---4---2---4---2---4---2-|
D|----------------------------------------------------------------|X2
A|----------------------------------------------------------------|
E|4---4---4---4---2---2---2---2---0---0---0---0---0---0---0---0---|
               It's just water and I'm just a soul
           With a body of water and bone water and bone

~INTERLUDE~

E|----------------------------------------------------------------|
B|----------------------------------------------------------------|
G|----------------------------------------------------------------|
D|--2---2---2---2---2---2---2---2---4---4---4---4---4---4---4---4-|
A|0---0---0---0---0---0---0---0-----------------------------------|
D|--------------------------------0---0---0---0---0---0---0---0---|

E|----------------------------------------------------------------|
B|----------------------------------------------------------------|
G|----------------------------------------------------------------|
D|--6---6---6---6---6---6---6---6---4---4---4---4---4---6---7---7-|
A|0---0---0---0---0---0---0---0-----------------------------------|
D|--------------------------------0---0---0---0---0---0---0---0---|

E|----------------------------------------------------------------|
B|----------------------------------------------------------------|
G|----------------------------------------------------------------|
D|--2---2---2---2---2---6---7---7---4---4---4---4---4---7---9---9-|
A|0---0---0---0---0---0---0---0-----------------------------------|
E|--------------------------------0---0---0---0---0---0---0---0---|

E|----------------------------------------------------------------|
B|----------------------------------------------------------------|
G|----------------------------------------------------------------|
D|--6---6---6---6---6---9---11--11--4---4---4---4---4---6---7---7-|
A|0---0---0---0---0---0---0---0-----------------------------------|
E|--------------------------------0---0---0---0---0---0---0---0---|

~VERSE~

Repeat verse with these lyrics.

Where is God in the city life
Where is God in the city light
Where is God in the earthquake
Where is God in the genocide

Where are you in my broken heart
Everything seems to fall apart
Everything feels rusted over
Tell me that you're there

~CHORUS~

Repeat chorus.

~OUTRO~

E|----------------------------------------------------------------|
B|----------------------------------------------------------------|
G|----------------------------------------------------------------|
D|--2---2---2---2---2---2---2---2---4---4---4---4---4---4---4---4-|
A|0---0---0---0---0---0---0---0-----------------------------------|
D|--------------------------------0---0---0---0---0---0---0---0---|

E|----------------------------------------------------------------|
B|----------------------------------------------------------------|
G|----------------------------------------------------------------|
D|--6---6---6---6---6---6---6---6---4---4---4---4---4---6---7---7-|
A|0---0---0---0---0---0---0---0-----------------------------------|
D|--------------------------------0---0---0---0---0---0---0---0---|

E|----------------------------------------------------------------|
B|----------------------------------------------------------------|
G|----------------------------------------------------------------|
D|--2---2---2---2---2---6---7---7---4---4---4---4---4---7---9---9-|
A|0---0---0---0---0---0---0---0-----------------------------------|
E|--------------------------------0---0---0---0---0---0---0---0---|

E|----------------------------------------------------------------|
B|----------------------------------------------------------------|
G|----------------------------------------------------------------|
D|--6---6---6---6---6---9---11--11--4---4---4---4---4---6---7---7-|
A|0---0---0---0---0---0---0---0-----------------------------------|
E|--------------------------------0---0---0---0---0---0---0---0---|

It slows down here.

E|--------------------------------|
B|--------------------------------|
G|--------------------2-----------|
D|--7---7---7---7-----2-----------|
A|--------------------0-----------|
E|0---0---0---0-------------------|

=============================================================================

Most of the notes on the D string are sliding back and forth, I just didn't
Want to add all those /.
Thanks for using my tab but if it didn't satisfy you, please leave a comment
so I know.

Peace, Love, I'm out. 
Tap to rate this tab
 
# A B C D E F G H I J K L M N O P Q R S T U V W X Y Z