Song name
# A B C D E F G H I J K L M N O P Q R S T U V W X Y Z

Switchfoot - Your Love Is A Song tab

This is a song about the Lord's grace.
Verse #1
e|------------------------|
B|10-10-10-10-10-10-10-10-|
G|------------------------|
D|11-11-11-11-11-11-11-11-|
A|9--9--9--9--9--9--9--9--|
E|------------------------|x2

e|------------------------------------|
B|7-7-7-10-10-10-10-9-9-9-9-9-9-9-9-9-|
G|------------------------------------|
D|7-7-7-11-11-11-11-9-9-9-9-9-9-9-9-9-|
A|5-5-5--9--9--9--9-7-7-7-7-7-7-7-7-7-|
E|------------------------------------|

e|------------------------|
B|10-10-10-10-10-10-10-10-|
G|------------------------|
D|11-11-11-11-11-11-11-11-|
A|9--9--9--9--9--9--9--9--|
E|------------------------|x2

e|------------------------------------|
B|7-7-7-10-10-10-10-9-9-9-9-9-9-9-9-9-|
G|------------------------------------|
D|7-7-7-11-11-11-11-9-9-9-9-9-9-9-9-9-|
A|5-5-5--9--9--9--9-7-7-7-7-7-7-7-7-7-|
E|------------------------------------|x2
Chorus:
F              D                    A                   E   F
Your love is a symphony/ all around me/ running through me/ your love is a
     D             A              E   B               D
melody/ underneath me/ running to me/ your love is a song


Verse #2 (same as verse #1)


Chorus #2 (same as first chorus)

Bridge (same as chorus except without the B)

e|------------------------------------|
B|7-7-7-10-10-10-10-9-9-9-9-9-9-9-9-9-|
G|------------------------------------|
D|7-7-7-11-11-11-11-9-9-9-9-9-9-9-9-9-|
A|5-5-5--9--9--9--9-7-7-7-7-7-7-7-7-7-|
E|------------------------------------|x4

Chorus #3

F              D                    A                   E   F
Your love is a symphony/ all around me/ running through me/ your love is a
     D             A              E   B               D    F E D  F E D
melody/ underneath me/ running to me/ your love is a song/ Ye-ah/ Ye-ah/
B              D
Your love is a song.

Ephesians 2:8-9 - For by grace you have been saved through faith,and that not of 
yourselves, it is the gift of God, not of works, lest anyone should boast.
Tap to rate this tab
# A B C D E F G H I J K L M N O P Q R S T U V W X Y Z